  0
SECTION
  2
HEADER
  9
$ACADVER
  1
AC1024
  9
$ACADMAINTVER
 70
     6
  9
$DWGCODEPAGE
  3
ANSI_1252
  9
$INSBASE
 10
0.0
 20
0.0
 30
0.0
  9
$EXTMIN
 10
-31.0630364596
 20
-54.1313853504
 30
0.0
  9
$EXTMAX
 10
31.1410110824
 20
71.6678290145
 30
0.0
  9
$LIMMIN
 10
0.0
 20
0.0
  9
$LIMMAX
 10
420.0
 20
297.0
  9
$ORTHOMODE
 70
     0
  9
$REGENMODE
 70
     1
  9
$FILLMODE
 70
     1
  9
$QTEXTMODE
 70
     0
  9
$MIRRTEXT
 70
     1
  9
$LTSCALE
 40
1.0
  9
$ATTMODE
 70
     1
  9
$TEXTSIZE
 40
3.5
  9
$TRACEWID
 40
1.0
  9
$TEXTSTYLE
  7
Standard
  9
$CLAYER
  8
0
  9
$CELTYPE
  6
ByLayer
  9
$CECOLOR
 62
   256
  9
$CELTSCALE
 40
1.0
  9
$DISPSILH
 70
     0
  9
$DIMSCALE
 40
1.0
  9
$DIMASZ
 40
3.302
  9
$DIMEXO
 40
1.0
  9
$DIMDLI
 40
3.75
  9
$DIMRND
 40
0.0
  9
$DIMDLE
 40
0.0
  9
$DIMEXE
 40
1.0
  9
$DIMTP
 40
0.0
  9
$DIMTM
 40
0.0
  9
$DIMTXT
 40
3.5
  9
$DIMCEN
 40
2.5
  9
$DIMTSZ
 40
0.0
  9
$DIMTOL
 70
     0
  9
$DIMLIM
 70
     0
  9
$DIMTIH
 70
     1
  9
$DIMTOH
 70
     1
  9
$DIMSE1
 70
     0
  9
$DIMSE2
 70
     0
  9
$DIMTAD
 70
     1
  9
$DIMZIN
 70
     0
  9
$DIMBLK
  1

  9
$DIMASO
 70
     1
  9
$DIMSHO
 70
     1
  9
$DIMPOST
  1

  9
$DIMAPOST
  1

  9
$DIMALT
 70
     0
  9
$DIMALTD
 70
     3
  9
$DIMALTF
 40
0.0393700787
  9
$DIMLFAC
 40
1.0
  9
$DIMTOFL
 70
     1
  9
$DIMTVP
 40
0.0
  9
$DIMTIX
 70
     0
  9
$DIMSOXD
 70
     0
  9
$DIMSAH
 70
     0
  9
$DIMBLK1
  1

  9
$DIMBLK2
  1

  9
$DIMSTYLE
  2
ISO-25
  9
$DIMCLRD
 70
     0
  9
$DIMCLRE
 70
     0
  9
$DIMCLRT
 70
     0
  9
$DIMTFAC
 40
1.0
  9
$DIMGAP
 40
1.524
  9
$DIMJUST
 70
     0
  9
$DIMSD1
 70
     0
  9
$DIMSD2
 70
     0
  9
$DIMTOLJ
 70
     0
  9
$DIMTZIN
 70
     0
  9
$DIMALTZ
 70
     0
  9
$DIMALTTZ
 70
     0
  9
$DIMUPT
 70
     0
  9
$DIMDEC
 70
     2
  9
$DIMTDEC
 70
     2
  9
$DIMALTU
 70
     2
  9
$DIMALTTD
 70
     3
  9
$DIMTXSTY
  7
Standard
  9
$DIMAUNIT
 70
     0
  9
$DIMADEC
 70
     2
  9
$DIMALTRND
 40
0.0
  9
$DIMAZIN
 70
     0
  9
$DIMDSEP
 70
    44
  9
$DIMATFIT
 70
     3
  9
$DIMFRAC
 70
     0
  9
$DIMLDRBLK
  1

  9
$DIMLUNIT
 70
     2
  9
$DIMLWD
 70
    -2
  9
$DIMLWE
 70
    -2
  9
$DIMTMOVE
 70
     0
  9
$DIMFXL
 40
1.0
  9
$DIMFXLON
 70
     0
  9
$DIMJOGANG
 40
0.7853981634
  9
$DIMTFILL
 70
     0
  9
$DIMTFILLCLR
 70
     0
  9
$DIMARCSYM
 70
     0
  9
$DIMLTYPE
  6

  9
$DIMLTEX1
  6

  9
$DIMLTEX2
  6

  9
$DIMTXTDIRECTION
 70
     0
  9
$LUNITS
 70
     2
  9
$LUPREC
 70
     3
  9
$SKETCHINC
 40
1.0
  9
$FILLETRAD
 40
10.0
  9
$AUNITS
 70
     0
  9
$AUPREC
 70
     2
  9
$MENU
  1
.
  9
$ELEVATION
 40
0.0
  9
$PELEVATION
 40
0.0
  9
$THICKNESS
 40
0.0
  9
$LIMCHECK
 70
     0
  9
$CHAMFERA
 40
0.0
  9
$CHAMFERB
 40
0.0
  9
$CHAMFERC
 40
0.0
  9
$CHAMFERD
 40
0.0
  9
$SKPOLY
 70
     0
  9
$TDCREATE
 40
2457529.296775718
  9
$TDUCREATE
 40
2457529.505109051
  9
$TDUPDATE
 40
2457529.29680316
  9
$TDUUPDATE
 40
2457529.505136493
  9
$TDINDWG
 40
0.0000000116
  9
$TDUSRTIMER
 40
0.0000000116
  9
$USRTIMER
 70
     1
  9
$ANGBASE
 50
0.0
  9
$ANGDIR
 70
     0
  9
$PDMODE
 70
     0
  9
$PDSIZE
 40
-1.0
  9
$PLINEWID
 40
0.0
  9
$SPLFRAME
 70
     0
  9
$SPLINETYPE
 70
     6
  9
$SPLINESEGS
 70
     8
  9
$HANDSEED
  5
1D3
  9
$SURFTAB1
 70
     6
  9
$SURFTAB2
 70
     6
  9
$SURFTYPE
 70
     6
  9
$SURFU
 70
     6
  9
$SURFV
 70
     6
  9
$UCSBASE
  2

  9
$UCSNAME
  2

  9
$UCSORG
 10
0.0
 20
0.0
 30
0.0
  9
$UCSXDIR
 10
1.0
 20
0.0
 30
0.0
  9
$UCSYDIR
 10
0.0
 20
1.0
 30
0.0
  9
$UCSORTHOREF
  2

  9
$UCSORTHOVIEW
 70
     0
  9
$UCSORGTOP
 10
0.0
 20
0.0
 30
0.0
  9
$UCSORGBOTTOM
 10
0.0
 20
0.0
 30
0.0
  9
$UCSORGLEFT
 10
0.0
 20
0.0
 30
0.0
  9
$UCSORGRIGHT
 10
0.0
 20
0.0
 30
0.0
  9
$UCSORGFRONT
 10
0.0
 20
0.0
 30
0.0
  9
$UCSORGBACK
 10
0.0
 20
0.0
 30
0.0
  9
$PUCSBASE
  2

  9
$PUCSNAME
  2

  9
$PUCSORG
 10
0.0
 20
0.0
 30
0.0
  9
$PUCSXDIR
 10
1.0
 20
0.0
 30
0.0
  9
$PUCSYDIR
 10
0.0
 20
1.0
 30
0.0
  9
$PUCSORTHOREF
  2

  9
$PUCSORTHOVIEW
 70
     0
  9
$PUCSORGTOP
 10
0.0
 20
0.0
 30
0.0
  9
$PUCSORGBOTTOM
 10
0.0
 20
0.0
 30
0.0
  9
$PUCSORGLEFT
 10
0.0
 20
0.0
 30
0.0
  9
$PUCSORGRIGHT
 10
0.0
 20
0.0
 30
0.0
  9
$PUCSORGFRONT
 10
0.0
 20
0.0
 30
0.0
  9
$PUCSORGBACK
 10
0.0
 20
0.0
 30
0.0
  9
$USERI1
 70
     0
  9
$USERI2
 70
     0
  9
$USERI3
 70
     0
  9
$USERI4
 70
     0
  9
$USERI5
 70
     0
  9
$USERR1
 40
0.0
  9
$USERR2
 40
0.0
  9
$USERR3
 40
0.0
  9
$USERR4
 40
0.0
  9
$USERR5
 40
0.0
  9
$WORLDVIEW
 70
     1
  9
$SHADEDGE
 70
     3
  9
$SHADEDIF
 70
    70
  9
$TILEMODE
 70
     1
  9
$MAXACTVP
 70
    64
  9
$PINSBASE
 10
0.0
 20
0.0
 30
0.0
  9
$PLIMCHECK
 70
     0
  9
$PEXTMIN
 10
1.0000000000E+20
 20
1.0000000000E+20
 30
1.0000000000E+20
  9
$PEXTMAX
 10
-1.0000000000E+20
 20
-1.0000000000E+20
 30
-1.0000000000E+20
  9
$PLIMMIN
 10
0.0
 20
0.0
  9
$PLIMMAX
 10
420.0
 20
297.0
  9
$UNITMODE
 70
     0
  9
$VISRETAIN
 70
     1
  9
$PLINEGEN
 70
     0
  9
$PSLTSCALE
 70
     1
  9
$TREEDEPTH
 70
  3020
  9
$CMLSTYLE
  2
Standard
  9
$CMLJUST
 70
     0
  9
$CMLSCALE
 40
20.0
  9
$PROXYGRAPHICS
 70
     1
  9
$MEASUREMENT
 70
     1
  9
$CELWEIGHT
370
    -1
  9
$ENDCAPS
280
     0
  9
$JOINSTYLE
280
     0
  9
$LWDISPLAY
290
     1
  9
$INSUNITS
 70
     4
  9
$HYPERLINKBASE
  1

  9
$STYLESHEET
  1

  9
$XEDIT
290
     1
  9
$CEPSNTYPE
380
     0
  9
$PSTYLEMODE
290
     1
  9
$FINGERPRINTGUID
  2
{494C7CB6-9D06-4540-82B7-A4C66DE31001}
  9
$VERSIONGUID
  2
{FAEB1C32-E019-11D5-929B-00C0DF256EC4}
  9
$EXTNAMES
290
     1
  9
$PSVPSCALE
 40
0.0
  9
$OLESTARTUP
290
     0
  9
$SORTENTS
280
   127
  9
$INDEXCTL
280
     0
  9
$HIDETEXT
280
     1
  9
$XCLIPFRAME
280
     2
  9
$HALOGAP
280
     0
  9
$OBSCOLOR
 70
   257
  9
$OBSLTYPE
280
     0
  9
$INTERSECTIONDISPLAY
280
     0
  9
$INTERSECTIONCOLOR
 70
   257
  9
$DIMASSOC
280
     2
  9
$PROJECTNAME
  1

  9
$CAMERADISPLAY
290
     0
  9
$LENSLENGTH
 40
50.0
  9
$CAMERAHEIGHT
 40
0.0
  9
$STEPSPERSEC
 40
2.0
  9
$STEPSIZE
 40
6.0
  9
$3DDWFPREC
 40
2.0
  9
$PSOLWIDTH
 40
5.0
  9
$PSOLHEIGHT
 40
80.0
  9
$LOFTANG1
 40
1.5707963268
  9
$LOFTANG2
 40
1.5707963268
  9
$LOFTMAG1
 40
0.0
  9
$LOFTMAG2
 40
0.0
  9
$LOFTPARAM
 70
     7
  9
$LOFTNORMALS
280
     1
  9
$LATITUDE
 40
37.795
  9
$LONGITUDE
 40
-122.394
  9
$NORTHDIRECTION
 40
0.0
  9
$TIMEZONE
 70
 -8000
  9
$LIGHTGLYPHDISPLAY
280
     1
  9
$TILEMODELIGHTSYNCH
280
     1
  9
$CMATERIAL
347
44
  9
$SOLIDHIST
280
     0
  9
$SHOWHIST
280
     1
  9
$DWFFRAME
280
     2
  9
$DGNFRAME
280
     2
  9
$REALWORLDSCALE
290
     1
  9
$INTERFERECOLOR
 62
   256
  9
$CSHADOW
280
     0
  9
$SHADOWPLANELOCATION
 40
0.0
  0
ENDSEC
  0
SECTION
  2
CLASSES
  0
CLASS
  1
ACDBDICTIONARYWDFLT
  2
AcDbDictionaryWithDefault
  3
ObjectDBX Classes
 90
        0
 91
        4
280
     0
281
     0
  0
CLASS
  1
VISUALSTYLE
  2
AcDbVisualStyle
  3
ObjectDBX Classes
 90
     4095
 91
        4
280
     0
281
     0
  0
CLASS
  1
MATERIAL
  2
AcDbMaterial
  3
ObjectDBX Classes
 90
     1153
 91
        4
280
     0
281
     0
  0
CLASS
  1
SCALE
  2
AcDbScale
  3
ObjectDBX Classes
 90
     1153
 91
        4
280
     0
281
     0
  0
CLASS
  1
TABLESTYLE
  2
AcDbTableStyle
  3
ObjectDBX Classes
 90
     4095
 91
        4
280
     0
281
     0
  0
CLASS
  1
MLEADERSTYLE
  2
AcDbMLeaderStyle
  3
ACDB_MLEADERSTYLE_CLASS
 90
     4095
 91
        4
280
     0
281
     0
  0
CLASS
  1
SUN
  2
AcDbSun
  3
SCENEOE
 90
     1153
 91
        4
280
     0
281
     0
  0
CLASS
  1
DICTIONARYVAR
  2
AcDbDictionaryVar
  3
ObjectDBX Classes
 90
        0
 91
        4
280
     0
281
     0
  0
CLASS
  1
CELLSTYLEMAP
  2
AcDbCellStyleMap
  3
ObjectDBX Classes
 90
     1152
 91
        4
280
     0
281
     0
  0
ENDSEC
  0
SECTION
  2
TABLES
  0
TABLE
  2
VPORT
  5
8
330
0
100
AcDbSymbolTable
 70
     1
  0
VPORT
  5
29
330
8
100
AcDbSymbolTableRecord
100
AcDbViewportTableRecord
  2
*Active
 70
     0
 10
0.0
 20
0.0
 11
1.0
 21
1.0
 12
0.0389873114
 22
8.768221832
 13
0.0
 23
0.0
 14
10.0
 24
10.0
 15
10.0
 25
10.0
 16
0.0
 26
0.0
 36
1.0
 17
0.0
 27
0.0
 37
0.0
 40
128.3151986522
 41
0.4944708745
 42
50.0
 43
0.0
 44
0.0
 50
0.0
 51
0.0
 71
     0
 72
   100
 73
     1
 74
     3
 75
     0
 76
     0
 77
     0
 78
     0
281
     0
 65
     1
110
0.0
120
0.0
130
0.0
111
1.0
121
0.0
131
0.0
112
0.0
122
1.0
132
0.0
 79
     0
146
0.0
 60
     3
 61
     5
292
     1
282
     1
141
0.0
142
0.0
 63
   250
361
6D
  0
ENDTAB
  0
TABLE
  2
LTYPE
  5
5
330
0
100
AcDbSymbolTable
 70
     6
  0
LTYPE
  5
14
330
5
100
AcDbSymbolTableRecord
100
AcDbLinetypeTableRecord
  2
ByBlock
 70
     0
  3

 72
    65
 73
     0
 40
0.0
  0
LTYPE
  5
15
330
5
100
AcDbSymbolTableRecord
100
AcDbLinetypeTableRecord
  2
ByLayer
 70
     0
  3

 72
    65
 73
     0
 40
0.0
  0
LTYPE
  5
16
330
5
100
AcDbSymbolTableRecord
100
AcDbLinetypeTableRecord
  2
Continuous
 70
     0
  3
Solid line
 72
    65
 73
     0
 40
0.0
  0
LTYPE
  5
6E
330
5
100
AcDbSymbolTableRecord
100
AcDbLinetypeTableRecord
  2
HIDDEN
 70
     0
  3
Hidden __ __ __ __ __ __ __ __ __ __ __ __ __ __
 72
    65
 73
     2
 40
1.905
 49
1.27
 74
     0
 49
-0.635
 74
     0
  0
LTYPE
  5
6F
330
5
100
AcDbSymbolTableRecord
100
AcDbLinetypeTableRecord
  2
PHANTOM
 70
     0
  3
Phantom ______  __  __  ______  __  __  ______
 72
    65
 73
     6
 40
12.7
 49
6.35
 74
     0
 49
-1.27
 74
     0
 49
1.27
 74
     0
 49
-1.27
 74
     0
 49
1.27
 74
     0
 49
-1.27
 74
     0
  0
LTYPE
  5
70
330
5
100
AcDbSymbolTableRecord
100
AcDbLinetypeTableRecord
  2
CENTER
 70
     0
  3
Center ____ _ ____ _ ____ _ ____ _ ____ _ ____
 72
    65
 73
     4
 40
10.16
 49
6.35
 74
     0
 49
-1.27
 74
     0
 49
1.27
 74
     0
 49
-1.27
 74
     0
  0
LTYPE
  5
71
330
5
100
AcDbSymbolTableRecord
100
AcDbLinetypeTableRecord
  2
CENTERX2
 70
     0
  3
Center (2x) ________  __  ________  __  _____
 72
    65
 73
     4
 40
20.32
 49
12.7
 74
     0
 49
-2.54
 74
     0
 49
2.54
 74
     0
 49
-2.54
 74
     0
  0
LTYPE
  5
72
330
5
100
AcDbSymbolTableRecord
100
AcDbLinetypeTableRecord
  2
DOT2
 70
     0
  3
Dot (.5x) ........................................
 72
    65
 73
     2
 40
0.635
 49
0.0
 74
     0
 49
-0.635
 74
     0
  0
ENDTAB
  0
TABLE
  2
LAYER
  5
2
330
0
100
AcDbSymbolTable
 70
     1
  0
LAYER
  5
10
330
2
100
AcDbSymbolTableRecord
100
AcDbLayerTableRecord
  2
0
 70
     0
 62
     7
  6
Continuous
370
    -3
390
F
347
46
  0
ENDTAB
  0
TABLE
  2
STYLE
  5
3
330
0
100
AcDbSymbolTable
 70
     1
  0
STYLE
  5
11
330
3
100
AcDbSymbolTableRecord
100
AcDbTextStyleTableRecord
  2
Standard
 70
     0
 40
0.0
 41
1.0
 50
0.0
 71
     0
 42
3.5
  3
txt
  4

  0
ENDTAB
  0
TABLE
  2
VIEW
  5
6
330
0
100
AcDbSymbolTable
 70
     0
  0
ENDTAB
  0
TABLE
  2
UCS
  5
7
330
0
100
AcDbSymbolTable
 70
     0
  0
ENDTAB
  0
TABLE
  2
APPID
  5
9
330
0
100
AcDbSymbolTable
 70
     1
  0
APPID
  5
12
330
9
100
AcDbSymbolTableRecord
100
AcDbRegAppTableRecord
  2
ACAD
 70
     0
  0
ENDTAB
  0
TABLE
  2
DIMSTYLE
  5
A
330
0
100
AcDbSymbolTable
 70
     1
100
AcDbDimStyleTable
  0
DIMSTYLE
105
27
330
A
100
AcDbSymbolTableRecord
100
AcDbDimStyleTableRecord
  2
ISO-25
 70
     0
 41
2.5
 42
0.625
 43
3.75
 44
1.25
 73
     0
 74
     0
 77
     1
 78
     8
140
2.5
141
2.5
143
0.0393700787
147
0.625
171
     3
172
     1
178
     0
271
     2
272
     2
274
     3
278
    44
283
     0
284
     8
340
11
  0
ENDTAB
  0
TABLE
  2
BLOCK_RECORD
  5
1
330
0
100
AcDbSymbolTable
 70
     1
  0
BLOCK_RECORD
  5
1F
330
1
100
AcDbSymbolTableRecord
100
AcDbBlockTableRecord
  2
*Model_Space
340
22
 70
     0
280
     1
281
     0
  0
BLOCK_RECORD
  5
1B
330
1
100
AcDbSymbolTableRecord
100
AcDbBlockTableRecord
  2
*Paper_Space
340
1E
 70
     0
280
     1
281
     0
  0
BLOCK_RECORD
  5
23
330
1
100
AcDbSymbolTableRecord
100
AcDbBlockTableRecord
  2
*Paper_Space0
340
26
 70
     0
280
     1
281
     0
  0
ENDTAB
  0
ENDSEC
  0
SECTION
  2
BLOCKS
  0
BLOCK
  5
20
330
1F
100
AcDbEntity
  8
0
100
AcDbBlockBegin
  2
*Model_Space
 70
     0
 10
0.0
 20
0.0
 30
0.0
  3
*Model_Space
  1

  0
ENDBLK
  5
21
330
1F
100
AcDbEntity
  8
0
100
AcDbBlockEnd
  0
BLOCK
  5
1C
330
1B
100
AcDbEntity
 67
     1
  8
0
100
AcDbBlockBegin
  2
*Paper_Space
 70
     0
 10
0.0
 20
0.0
 30
0.0
  3
*Paper_Space
  1

  0
ENDBLK
  5
1D
330
1B
100
AcDbEntity
 67
     1
  8
0
100
AcDbBlockEnd
  0
BLOCK
  5
24
330
23
100
AcDbEntity
  8
0
100
AcDbBlockBegin
  2
*Paper_Space0
 70
     0
 10
0.0
 20
0.0
 30
0.0
  3
*Paper_Space0
  1

  0
ENDBLK
  5
25
330
23
100
AcDbEntity
  8
0
100
AcDbBlockEnd
  0
ENDSEC
  0
SECTION
  2
ENTITIES
  0
LWPOLYLINE
  5
73
330
1F
100
AcDbEntity
  8
0
  6
Continuous
 62
     7
100
AcDbPolyline
 90
        9
 70
   128
 43
0.0
 10
-12.9938710162
 20
1.8976625215
 10
-12.7012169102
 20
1.9258226686
 10
-12.4196817319
 20
2.0105444358
 10
-12.1600847203
 20
2.1485720131
 10
-11.9324020431
 20
2.3346010782
 10
-11.7453834177
 20
2.5614826384
 10
-11.6062158652
 20
2.8204977626
 10
-11.5202475164
 20
3.1016926447
 10
-11.4907820869
 20
3.3942611233
  0
LWPOLYLINE
  5
74
330
1F
100
AcDbEntity
  8
0
  6
Continuous
 62
     7
100
AcDbPolyline
 90
        9
 70
   128
 43
0.0
 10
6.4276459322
 20
-31.1462223111
 10
6.245966706
 20
-31.1667097974
 10
6.0736869755
 20
-31.2279234657
 10
5.9198076747
 20
-31.3266651443
 10
5.792368388
 20
-31.4577759712
 10
5.6980273135
 20
-31.6144059249
 10
5.641713399
 20
-31.7883717102
 10
5.6263688236
 20
-31.9705843035
 10
5.6527952807
 20
-32.1515238181
  0
LWPOLYLINE
  5
75
330
1F
100
AcDbEntity
  8
0
  6
Continuous
 62
     7
100
AcDbPolyline
 90
        9
 70
   128
 43
0.0
 10
-5.7951125875
 20
-32.1256320517
 10
-5.7678853114
 20
-31.9448138859
 10
-5.7824230131
 20
-31.7625337078
 10
-5.8379661552
 20
-31.5883149351
 10
-5.9316128284
 20
-31.431259809
 10
-6.0584703648
 20
-31.2995738382
 10
-6.2119109601
 20
-31.2001370933
 10
-6.3839179508
 20
-31.1381447507
 10
-6.5655046524
 20
-31.1168356649
  0
LWPOLYLINE
  5
76
330
1F
100
AcDbEntity
  8
0
  6
CENTERX2
 62
     7
100
AcDbPolyline
 90
        9
 70
   128
 43
0.0
 10
4.0360453958
 20
16.5591277053
 10
3.8035830678
 20
16.0903991859
 10
3.6342949351
 20
15.5953268718
 10
3.5310786122
 20
15.082384651
 10
3.4957007978
 20
14.5603522811
 10
3.5287670348
 20
14.0381651112
 10
3.6297113462
 20
13.5247611397
 10
3.7968059223
 20
13.0289280278
 10
4.0271906946
 20
12.5591526858
  0
LWPOLYLINE
  5
77
330
1F
100
AcDbEntity
  8
0
  6
CENTERX2
 62
     7
100
AcDbPolyline
 90
        9
 70
   128
 43
0.0
 10
-3.9715741924
 20
12.5772435155
 10
-3.7391118644
 20
13.0459720349
 10
-3.5698237318
 20
13.541044349
 10
-3.4666074089
 20
14.0539865698
 10
-3.4312295944
 20
14.5760189396
 10
-3.4642958314
 20
15.0982061096
 10
-3.5652401429
 20
15.6116100811
 10
-3.732334719
 20
16.107443193
 10
-3.9627194912
 20
16.577218535
  0
LWPOLYLINE
  5
78
330
1F
100
AcDbEntity
  8
0
  6
Continuous
 62
     7
100
AcDbPolyline
 90
        9
 70
   128
 43
0.0
 10
-27.7487885606
 20
66.4309538821
 10
-26.903122502
 20
61.6074640615
 10
-24.448247352
 20
57.3702696078
 10
-20.6845246981
 20
54.2378044027
 10
-16.0724576788
 20
52.5933352782
 10
-11.1763469967
 20
52.6380681314
 10
-6.5952469773
 20
54.3665297592
 10
-2.8896694146
 20
57.567237521
 10
-0.5130032151
 20
61.8485748963
  0
LWPOLYLINE
  5
79
330
1F
100
AcDbEntity
  8
0
  6
Continuous
 62
     7
100
AcDbPolyline
 90
        9
 70
   128
 43
0.0
 10
-23.8392445532
 20
48.422133947
 10
-24.1454788382
 20
48.3619302594
 10
-24.4053613389
 20
48.1891000501
 10
-24.5793273004
 20
47.9299551518
 10
-24.6408919822
 20
47.623948026
 10
-24.5806827194
 20
47.3176654838
 10
-24.4078658266
 20
47.0577362657
 10
-24.1487511091
 20
46.8837322389
 10
-23.8427864337
 20
46.8221439391
  0
LWPOLYLINE
  5
7A
330
1F
100
AcDbEntity
  8
0
  6
Continuous
 62
     7
100
AcDbPolyline
 90
        9
 70
   128
 43
0.0
 10
-13.9443148861
 20
46.7997565374
 10
-13.6380806011
 20
46.859960225
 10
-13.3781981004
 20
47.0327904343
 10
-13.2042321389
 20
47.2919353326
 10
-13.1426674571
 20
47.5979424584
 10
-13.2028767199
 20
47.9042250006
 10
-13.3756936127
 20
48.1641542187
 10
-13.6348083302
 20
48.3381582455
 10
-13.9407730056
 20
48.3997465452
  0
LWPOLYLINE
  5
7B
330
1F
100
AcDbEntity
  8
0
  6
Continuous
 62
     7
100
AcDbPolyline
 90
        9
 70
   128
 43
0.0
 10
-23.8427864337
 20
46.8221439391
 10
-24.1490207187
 20
46.7619402515
 10
-24.4089032194
 20
46.5891100423
 10
-24.5828691809
 20
46.3299651439
 10
-24.6444338627
 20
46.0239580182
 10
-24.5842245999
 20
45.717675476
 10
-24.4114077071
 20
45.4577462579
 10
-24.1522929896
 20
45.2837422311
 10
-23.8463283142
 20
45.2221539313
  0
LWPOLYLINE
  5
7C
330
1F
100
AcDbEntity
  8
0
  6
Continuous
 62
     7
100
AcDbPolyline
 90
        9
 70
   128
 43
0.0
 10
-13.9478567666
 20
45.1997665296
 10
-13.6416224816
 20
45.2599702172
 10
-13.3817399809
 20
45.4328004265
 10
-13.2077740194
 20
45.6919453248
 10
-13.1462093376
 20
45.9979524505
 10
-13.2064186004
 20
46.3042349928
 10
-13.3792354932
 20
46.5641642109
 10
-13.6383502107
 20
46.7381682377
 10
-13.9443148861
 20
46.7997565374
  0
LWPOLYLINE
  5
7D
330
1F
100
AcDbEntity
  8
0
  6
Continuous
 62
     7
100
AcDbPolyline
 90
        9
 70
   128
 43
0.0
 10
-23.8463283142
 20
45.2221539313
 10
-24.1525625992
 20
45.1619502437
 10
-24.4124450999
 20
44.9891200344
 10
-24.5864110614
 20
44.7299751361
 10
-24.6479757432
 20
44.4239680104
 10
-24.5877664804
 20
44.1176854682
 10
-24.4149495876
 20
43.8577562501
 10
-24.1558348701
 20
43.6837522233
 10
-23.8498701947
 20
43.6221639235
  0
LWPOLYLINE
  5
7E
330
1F
100
AcDbEntity
  8
0
  6
Continuous
 62
     7
100
AcDbPolyline
 90
        9
 70
   128
 43
0.0
 10
-13.9513986471
 20
43.5997765218
 10
-13.6451643621
 20
43.6599802094
 10
-13.3852818614
 20
43.8328104187
 10
-13.2113158999
 20
44.091955317
 10
-13.1497512181
 20
44.3979624427
 10
-13.2099604809
 20
44.7042449849
 10
-13.3827773737
 20
44.964174203
 10
-13.6418920912
 20
45.1381782298
 10
-13.9478567666
 20
45.1997665296
  0
LWPOLYLINE
  5
7F
330
1F
100
AcDbEntity
  8
0
  6
Continuous
 62
     7
100
AcDbPolyline
 90
        9
 70
   128
 43
0.0
 10
-23.8498701947
 20
43.6221639235
 10
-24.1561044797
 20
43.5619602359
 10
-24.4159869804
 20
43.3891300266
 10
-24.5899529419
 20
43.1299851283
 10
-24.6515176237
 20
42.8239780026
 10
-24.5913083609
 20
42.5176954604
 10
-24.4184914681
 20
42.2577662422
 10
-24.1593767506
 20
42.0837622155
 10
-23.8534120752
 20
42.0221739157
  0
LWPOLYLINE
  5
80
330
1F
100
AcDbEntity
  8
0
  6
Continuous
 62
     7
100
AcDbPolyline
 90
        9
 70
   128
 43
0.0
 10
-13.9549405276
 20
41.999786514
 10
-13.6487062426
 20
42.0599902016
 10
-13.3888237419
 20
42.2328204108
 10
-13.2148577804
 20
42.4919653092
 10
-13.1532930986
 20
42.7979724349
 10
-13.2135023614
 20
43.1042549771
 10
-13.3863192542
 20
43.3641841952
 10
-13.6454339717
 20
43.538188222
 10
-13.9513986471
 20
43.5997765218
  0
LWPOLYLINE
  5
81
330
1F
100
AcDbEntity
  8
0
  6
Continuous
 62
     7
100
AcDbPolyline
 90
        9
 70
   128
 43
0.0
 10
-23.8534120752
 20
42.0221739157
 10
-24.1596463602
 20
41.9619702281
 10
-24.4195288609
 20
41.7891400188
 10
-24.5934948224
 20
41.5299951205
 10
-24.6550595042
 20
41.2239879947
 10
-24.5948502414
 20
40.9177054525
 10
-24.4220333486
 20
40.6577762344
 10
-24.1629186311
 20
40.4837722076
 10
-23.8569539557
 20
40.4221839079
  0
LWPOLYLINE
  5
82
330
1F
100
AcDbEntity
  8
0
  6
Continuous
 62
     7
100
AcDbPolyline
 90
        9
 70
   128
 43
0.0
 10
-13.9584824081
 20
40.3997965061
 10
-13.6522481231
 20
40.4600001937
 10
-13.3923656224
 20
40.632830403
 10
-13.2183996609
 20
40.8919753013
 10
-13.1568349791
 20
41.1979824271
 10
-13.2170442419
 20
41.5042649693
 10
-13.3898611347
 20
41.7641941874
 10
-13.6489758522
 20
41.9381982142
 10
-13.9549405276
 20
41.999786514
  0
LWPOLYLINE
  5
83
330
1F
100
AcDbEntity
  8
0
  6
Continuous
 62
     7
100
AcDbPolyline
 90
        9
 70
   128
 43
0.0
 10
-23.8569539557
 20
40.4221839079
 10
-24.1631882407
 20
40.3619802203
 10
-24.4230707414
 20
40.189150011
 10
-24.5970367029
 20
39.9300051127
 10
-24.6586013847
 20
39.6239979869
 10
-24.5983921219
 20
39.3177154447
 10
-24.4255752291
 20
39.0577862266
 10
-24.1664605116
 20
38.8837821998
 10
-23.8604958362
 20
38.8221939
  0
LWPOLYLINE
  5
84
330
1F
100
AcDbEntity
  8
0
  6
Continuous
 62
     7
100
AcDbPolyline
 90
        9
 70
   128
 43
0.0
 10
-13.9620242886
 20
38.7998064983
 10
-13.6557900036
 20
38.8600101859
 10
-13.3959075029
 20
39.0328403952
 10
-13.2219415414
 20
39.2919852935
 10
-13.1603768596
 20
39.5979924193
 10
-13.2205861224
 20
39.9042749615
 10
-13.3934030152
 20
40.1642041796
 10
-13.6525177327
 20
40.3382082064
 10
-13.9584824081
 20
40.3997965061
  0
LWPOLYLINE
  5
85
330
1F
100
AcDbEntity
  8
0
  6
Continuous
 62
     7
100
AcDbPolyline
 90
        9
 70
   128
 43
0.0
 10
-23.8604958362
 20
38.8221939
 10
-24.1667301212
 20
38.7619902124
 10
-24.4266126219
 20
38.5891600031
 10
-24.6005785834
 20
38.3300151048
 10
-24.6621432652
 20
38.0240079791
 10
-24.6019340024
 20
37.7177254369
 10
-24.4291171096
 20
37.4577962188
 10
-24.1700023921
 20
37.283792192
 10
-23.8640377167
 20
37.2222038922
  0
LWPOLYLINE
  5
86
330
1F
100
AcDbEntity
  8
0
  6
Continuous
 62
     7
100
AcDbPolyline
 90
        9
 70
   128
 43
0.0
 10
-13.9655661691
 20
37.1998164905
 10
-13.6593318841
 20
37.2600201781
 10
-13.3994493834
 20
37.4328503874
 10
-13.2254834219
 20
37.6919952857
 10
-13.1639187401
 20
37.9980024114
 10
-13.2241280029
 20
38.3042849536
 10
-13.3969448957
 20
38.5642141717
 10
-13.6560596132
 20
38.7382181985
 10
-13.9620242886
 20
38.7998064983
  0
LWPOLYLINE
  5
87
330
1F
100
AcDbEntity
  8
0
  6
Continuous
 62
     7
100
AcDbPolyline
 90
        9
 70
   128
 43
0.0
 10
-23.8640377167
 20
37.2222038922
 10
-24.1702720017
 20
37.1620002046
 10
-24.4301545024
 20
36.9891699953
 10
-24.6041204639
 20
36.730025097
 10
-24.6656851457
 20
36.4240179713
 10
-24.6054758829
 20
36.1177354291
 10
-24.4326589901
 20
35.857806211
 10
-24.1735442726
 20
35.6838021842
 10
-23.8675795972
 20
35.6222138844
  0
LWPOLYLINE
  5
88
330
1F
100
AcDbEntity
  8
0
  6
Continuous
 62
     7
100
AcDbPolyline
 90
        9
 70
   128
 43
0.0
 10
-13.9691080496
 20
35.5998264827
 10
-13.6628737646
 20
35.6600301703
 10
-13.4029912639
 20
35.8328603796
 10
-13.2290253024
 20
36.0920052779
 10
-13.1674606206
 20
36.3980124036
 10
-13.2276698834
 20
36.7042949458
 10
-13.4004867762
 20
36.9642241639
 10
-13.6596014937
 20
37.1382281907
 10
-13.9655661691
 20
37.1998164905
  0
LWPOLYLINE
  5
89
330
1F
100
AcDbEntity
  8
0
  6
Continuous
 62
     7
100
AcDbPolyline
 90
        9
 70
   128
 43
0.0
 10
-23.8675795972
 20
35.6222138844
 10
-24.1738138822
 20
35.5620101968
 10
-24.4336963829
 20
35.3891799875
 10
-24.6076623444
 20
35.1300350892
 10
-24.6692270262
 20
34.8240279635
 10
-24.6090177634
 20
34.5177454212
 10
-24.4362008706
 20
34.2578162031
 10
-24.1770861531
 20
34.0838121763
 10
-23.8711214777
 20
34.0222238766
  0
LWPOLYLINE
  5
8A
330
1F
100
AcDbEntity
  8
0
  6
Continuous
 62
     7
100
AcDbPolyline
 90
        9
 70
   128
 43
0.0
 10
-13.9726499301
 20
33.9998364748
 10
-13.6664156451
 20
34.0600401625
 10
-13.4065331444
 20
34.2328703717
 10
-13.2325671829
 20
34.4920152701
 10
-13.1710025011
 20
34.7980223958
 10
-13.2312117639
 20
35.104304938
 10
-13.4040286567
 20
35.3642341561
 10
-13.6631433742
 20
35.5382381829
 10
-13.9691080496
 20
35.5998264827
  0
LWPOLYLINE
  5
8B
330
1F
100
AcDbEntity
  8
0
  6
Continuous
 62
     7
100
AcDbPolyline
 90
        9
 70
   128
 43
0.0
 10
-23.8711214777
 20
34.0222238766
 10
-24.1773557627
 20
33.962020189
 10
-24.4372382634
 20
33.7891899797
 10
-24.6112042249
 20
33.5300450814
 10
-24.6727689067
 20
33.2240379556
 10
-24.6125596439
 20
32.9177554134
 10
-24.4397427511
 20
32.6578261953
 10
-24.1806280336
 20
32.4838221685
 10
-23.8746633582
 20
32.4222338688
  0
LWPOLYLINE
  5
8C
330
1F
100
AcDbEntity
  8
0
  6
Continuous
 62
     7
100
AcDbPolyline
 90
        9
 70
   128
 43
0.0
 10
-13.9761918106
 20
32.399846467
 10
-13.6699575256
 20
32.4600501546
 10
-13.4100750249
 20
32.6328803639
 10
-13.2361090634
 20
32.8920252622
 10
-13.1745443816
 20
33.198032388
 10
-13.2347536444
 20
33.5043149302
 10
-13.4075705372
 20
33.7642441483
 10
-13.6666852547
 20
33.9382481751
 10
-13.9726499301
 20
33.9998364748
  0
LWPOLYLINE
  5
8D
330
1F
100
AcDbEntity
  8
0
  6
Continuous
 62
     7
100
AcDbPolyline
 90
        9
 70
   128
 43
0.0
 10
-23.8746633582
 20
32.4222338688
 10
-24.1808976432
 20
32.3620301812
 10
-24.4407801439
 20
32.1891999719
 10
-24.6147461054
 20
31.9300550735
 10
-24.6763107872
 20
31.6240479478
 10
-24.6161015244
 20
31.3177654056
 10
-24.4432846316
 20
31.0578361875
 10
-24.1841699141
 20
30.8838321607
 10
-23.8782052387
 20
30.8222438609
  0
LWPOLYLINE
  5
8E
330
1F
100
AcDbEntity
  8
0
  6
Continuous
 62
     7
100
AcDbPolyline
 90
        9
 70
   128
 43
0.0
 10
-13.9797336911
 20
30.7998564592
 10
-13.6734994061
 20
30.8600601468
 10
-13.4136169054
 20
31.0328903561
 10
-13.2396509439
 20
31.2920352544
 10
-13.1780862621
 20
31.5980423801
 10
-13.2382955249
 20
31.9043249224
 10
-13.4111124177
 20
32.1642541405
 10
-13.6702271352
 20
32.3382581673
 10
-13.9761918106
 20
32.399846467
  0
LWPOLYLINE
  5
8F
330
1F
100
AcDbEntity
  8
0
  6
Continuous
 62
     7
100
AcDbPolyline
 90
        9
 70
   128
 43
0.0
 10
-23.8782052387
 20
30.8222438609
 10
-24.1844395237
 20
30.7620401733
 10
-24.4443220244
 20
30.589209964
 10
-24.6182879859
 20
30.3300650657
 10
-24.6798526677
 20
30.02405794
 10
-24.6196434049
 20
29.7177753978
 10
-24.4468265121
 20
29.4578461797
 10
-24.1877117946
 20
29.2838421529
 10
-23.8817471192
 20
29.2222538531
  0
LWPOLYLINE
  5
90
330
1F
100
AcDbEntity
  8
0
  6
Continuous
 62
     7
100
AcDbPolyline
 90
        9
 70
   128
 43
0.0
 10
-13.9832755716
 20
29.1998664514
 10
-13.6770412866
 20
29.260070139
 10
-13.4171587859
 20
29.4329003483
 10
-13.2431928244
 20
29.6920452466
 10
-13.1816281426
 20
29.9980523723
 10
-13.2418374054
 20
30.3043349145
 10
-13.4146542982
 20
30.5642641326
 10
-13.6737690157
 20
30.7382681594
 10
-13.9797336911
 20
30.7998564592
  0
LWPOLYLINE
  5
91
330
1F
100
AcDbEntity
  8
0
  6
Continuous
 62
     7
100
AcDbPolyline
 90
        9
 70
   128
 43
0.0
 10
-23.8817471192
 20
29.2222538531
 10
-24.1879814042
 20
29.1620501655
 10
-24.4478639049
 20
28.9892199562
 10
-24.6218298664
 20
28.7300750579
 10
-24.6833945482
 20
28.4240679322
 10
-24.6231852854
 20
28.11778539
 10
-24.4503683926
 20
27.8578561719
 10
-24.1912536751
 20
27.6838521451
 10
-23.8852889997
 20
27.6222638453
  0
LWPOLYLINE
  5
92
330
1F
100
AcDbEntity
  8
0
  6
Continuous
 62
     7
100
AcDbPolyline
 90
        9
 70
   128
 43
0.0
 10
-13.9868174521
 20
27.5998764436
 10
-13.6805831671
 20
27.6600801312
 10
-13.4207006664
 20
27.8329103405
 10
-13.2467347049
 20
28.0920552388
 10
-13.1851700231
 20
28.3980623645
 10
-13.2453792859
 20
28.7043449067
 10
-13.4181961787
 20
28.9642741248
 10
-13.6773108962
 20
29.1382781516
 10
-13.9832755716
 20
29.1998664514
  0
LWPOLYLINE
  5
93
330
1F
100
AcDbEntity
  8
0
  6
Continuous
 62
     7
100
AcDbPolyline
 90
        9
 70
   128
 43
0.0
 10
-23.8852889997
 20
27.6222638453
 10
-24.1915232847
 20
27.5620601577
 10
-24.4514057854
 20
27.3892299484
 10
-24.6253717469
 20
27.1300850501
 10
-24.6869364287
 20
26.8240779244
 10
-24.6267271659
 20
26.5177953821
 10
-24.4539102731
 20
26.257866164
 10
-24.1947955556
 20
26.0838621372
 10
-23.8888308802
 20
26.0222738375
  0
LWPOLYLINE
  5
94
330
1F
100
AcDbEntity
  8
0
  6
Continuous
 62
     7
100
AcDbPolyline
 90
        9
 70
   128
 43
0.0
 10
-13.9903593326
 20
25.9998864357
 10
-13.6841250476
 20
26.0600901233
 10
-13.4242425469
 20
26.2329203326
 10
-13.2502765854
 20
26.492065231
 10
-13.1887119036
 20
26.7980723567
 10
-13.2489211664
 20
27.1043548989
 10
-13.4217380592
 20
27.364284117
 10
-13.6808527767
 20
27.5382881438
 10
-13.9868174521
 20
27.5998764436
  0
LWPOLYLINE
  5
95
330
1F
100
AcDbEntity
  8
0
  6
Continuous
 62
     7
100
AcDbPolyline
 90
        9
 70
   128
 43
0.0
 10
-23.8888308802
 20
26.0222738375
 10
-24.1950651652
 20
25.9620701499
 10
-24.4549476659
 20
25.7892399406
 10
-24.6289136274
 20
25.5300950423
 10
-24.6904783092
 20
25.2240879165
 10
-24.6302690464
 20
24.9178053743
 10
-24.4574521536
 20
24.6578761562
 10
-24.1983374361
 20
24.4838721294
 10
-23.8923727607
 20
24.4222838297
  0
LWPOLYLINE
  5
96
330
1F
100
AcDbEntity
  8
0
  6
Continuous
 62
     7
100
AcDbPolyline
 90
        9
 70
   128
 43
0.0
 10
-13.9939012131
 20
24.3998964279
 10
-13.6876669281
 20
24.4601001155
 10
-13.4277844274
 20
24.6329303248
 10
-13.2538184659
 20
24.8920752231
 10
-13.1922537841
 20
25.1980823489
 10
-13.2524630469
 20
25.5043648911
 10
-13.4252799397
 20
25.7642941092
 10
-13.6843946572
 20
25.938298136
 10
-13.9903593326
 20
25.9998864357
  0
LWPOLYLINE
  5
97
330
1F
100
AcDbEntity
  8
0
  6
Continuous
 62
     7
100
AcDbPolyline
 90
        9
 70
   128
 43
0.0
 10
-23.8923727607
 20
24.4222838297
 10
-24.1986070457
 20
24.362080142
 10
-24.4584895464
 20
24.1892499328
 10
-24.6324555079
 20
23.9301050344
 10
-24.6940201897
 20
23.6240979087
 10
-24.6338109269
 20
23.3178153665
 10
-24.4609940341
 20
23.0578861484
 10
-24.2018793166
 20
22.8838821216
 10
-23.8959146412
 20
22.8222938218
  0
LWPOLYLINE
  5
98
330
1F
100
AcDbEntity
  8
0
  6
Continuous
 62
     7
100
AcDbPolyline
 90
        9
 70
   128
 43
0.0
 10
-13.9974430936
 20
22.7999064201
 10
-13.6912088086
 20
22.8601101077
 10
-13.4313263079
 20
23.032940317
 10
-13.2573603464
 20
23.2920852153
 10
-13.1957956646
 20
23.598092341
 10
-13.2560049274
 20
23.9043748833
 10
-13.4288218202
 20
24.1643041014
 10
-13.6879365377
 20
24.3383081282
 10
-13.9939012131
 20
24.3998964279
  0
LWPOLYLINE
  5
99
330
1F
100
AcDbEntity
  8
0
  6
Continuous
 62
     7
100
AcDbPolyline
 90
        9
 70
   128
 43
0.0
 10
-23.8959146412
 20
22.8222938218
 10
-24.2021489262
 20
22.7620901342
 10
-24.4620314269
 20
22.5892599249
 10
-24.6359973884
 20
22.3301150266
 10
-24.6975620702
 20
22.0241079009
 10
-24.6373528074
 20
21.7178253587
 10
-24.4645359146
 20
21.4578961406
 10
-24.2054211971
 20
21.2838921138
 10
-23.8994565217
 20
21.222303814
  0
LWPOLYLINE
  5
9A
330
1F
100
AcDbEntity
  8
0
  6
Continuous
 62
     7
100
AcDbPolyline
 90
        9
 70
   128
 43
0.0
 10
-14.0009849741
 20
21.1999164123
 10
-13.6947506891
 20
21.2601200999
 10
-13.4348681884
 20
21.4329503092
 10
-13.2609022269
 20
21.6920952075
 10
-13.1993375451
 20
21.9981023332
 10
-13.2595468079
 20
22.3043848754
 10
-13.4323637007
 20
22.5643140935
 10
-13.6914784182
 20
22.7383181203
 10
-13.9974430936
 20
22.7999064201
  0
LWPOLYLINE
  5
9B
330
1F
100
AcDbEntity
  8
0
  6
Continuous
 62
     7
100
AcDbPolyline
 90
        9
 70
   128
 43
0.0
 10
-19.7545245872
 20
19.2129316863
 10
-19.7620365418
 20
19.2909847083
 10
-19.7846292186
 20
19.3660729574
 10
-19.8214343938
 20
19.4353108344
 10
-19.871037665
 20
19.4960375665
 10
-19.9315328065
 20
19.5459194594
 10
-20.0005950238
 20
19.5830395799
 10
-20.0755702946
 20
19.6059714226
 10
-20.1535773615
 20
19.6138337298
  0
LWPOLYLINE
  5
9C
330
1F
100
AcDbEntity
  8
0
  6
Continuous
 62
     7
100
AcDbPolyline
 90
        9
 70
   128
 43
0.0
 10
-18.1547716098
 20
19.2093135204
 10
-18.1923313827
 20
19.5995786303
 10
-18.3052947667
 20
19.9750198759
 10
-18.4893206425
 20
20.3212092609
 10
-18.7373369987
 20
20.6248429212
 10
-19.039812706
 20
20.8742523856
 10
-19.3851237925
 20
21.0598529882
 10
-19.7600001469
 20
21.174512202
 10
-20.150035481
 20
21.2138237376
  0
LWPOLYLINE
  5
9D
330
1F
100
AcDbEntity
  8
0
  6
Continuous
 62
     7
100
AcDbPolyline
 90
        9
 70
   128
 43
0.0
 10
-22.6496495081
 20
21.2194771219
 10
-22.9558837931
 20
21.1592734343
 10
-23.2157662938
 20
20.986443225
 10
-23.3897322553
 20
20.7272983267
 10
-23.4512969371
 20
20.4212912009
 10
-23.3910876743
 20
20.1150086587
 10
-23.2182707815
 20
19.8550794406
 10
-22.959156064
 20
19.6810754138
 10
-22.6531913886
 20
19.6194871141
  0
LWPOLYLINE
  5
9E
330
1F
100
AcDbEntity
  8
0
  6
Continuous
 62
     7
100
AcDbPolyline
 90
        9
 70
   128
 43
0.0
 10
-19.7695775794
 20
12.4129741531
 10
-19.7093683166
 20
12.1066916109
 10
-19.5365514238
 20
11.8467623928
 10
-19.2774367063
 20
11.672758366
 10
-18.9714720309
 20
11.6111700662
 10
-18.6652377459
 20
11.6713737538
 10
-18.4053552452
 20
11.8442039631
 10
-18.2313892837
 20
12.1033488614
 10
-18.169824602
 20
12.4093559872
  0
LWPOLYLINE
  5
9F
330
1F
100
AcDbEntity
  8
0
  6
Continuous
 62
     7
100
AcDbPolyline
 90
        9
 70
   128
 43
0.0
 10
-18.169824602
 20
12.4093559872
 10
-18.2300338647
 20
12.7156385294
 10
-18.4028507575
 20
12.9755677475
 10
-18.661965475
 20
13.1495717743
 10
-18.9679301504
 20
13.211160074
 10
-19.2741644354
 20
13.1509563864
 10
-19.5340469361
 20
12.9781261771
 10
-19.7080128976
 20
12.7189812788
 10
-19.7695775794
 20
12.4129741531
  0
LWPOLYLINE
  5
A0
330
1F
100
AcDbEntity
  8
0
  6
Continuous
 62
     7
100
AcDbPolyline
 90
        9
 70
   128
 43
0.0
 10
-18.0857049401
 20
50.4091186729
 10
-18.0781929855
 20
50.3310656509
 10
-18.0556003087
 20
50.2559774018
 10
-18.0187951335
 20
50.1867395248
 10
-17.9691918623
 20
50.1260127928
 10
-17.9086967208
 20
50.0761308999
 10
-17.8396345035
 20
50.0390107794
 10
-17.7646592327
 20
50.0160789366
 10
-17.6866521659
 20
50.0082166295
  0
LWPOLYLINE
  5
A1
330
1F
100
AcDbEntity
  8
0
  6
Continuous
 62
     7
100
AcDbPolyline
 90
        9
 70
   128
 43
0.0
 10
-19.6854579175
 20
50.4127368388
 10
-19.6478981446
 20
50.022471729
 10
-19.5349347606
 20
49.6470304833
 10
-19.3509088848
 20
49.3008410984
 10
-19.1028925286
 20
48.9972074381
 10
-18.8004168213
 20
48.7477979737
 10
-18.4551057348
 20
48.5621973711
 10
-18.0802293804
 20
48.4475381573
 10
-17.6901940464
 20
48.4082266217
  0
LWPOLYLINE
  5
A2
330
1F
100
AcDbEntity
  8
0
  6
Continuous
 62
     7
100
AcDbPolyline
 90
        9
 70
   128
 43
0.0
 10
-15.1905800192
 20
48.4025732374
 10
-14.8843457342
 20
48.462776925
 10
-14.6244632335
 20
48.6356071343
 10
-14.450497272
 20
48.8947520326
 10
-14.3889325902
 20
49.2007591583
 10
-14.449141853
 20
49.5070417005
 10
-14.6219587458
 20
49.7669709186
 10
-14.8810734633
 20
49.9409749454
 10
-15.1870381387
 20
50.0025632452
  0
LWPOLYLINE
  5
A3
330
1F
100
AcDbEntity
  8
0
  6
Continuous
 62
     7
100
AcDbPolyline
 90
        9
 70
   128
 43
0.0
 10
-18.070651948
 20
57.2090762062
 10
-18.1308612107
 20
57.5153587484
 10
-18.3036781035
 20
57.7752879665
 10
-18.562792821
 20
57.9492919933
 10
-18.8687574964
 20
58.010880293
 10
-19.1749917814
 20
57.9506766054
 10
-19.4348742821
 20
57.7778463961
 10
-19.6088402436
 20
57.5187014978
 10
-19.6704049254
 20
57.2126943721
  0
LWPOLYLINE
  5
A4
330
1F
100
AcDbEntity
  8
0
  6
Continuous
 62
     7
100
AcDbPolyline
 90
        9
 70
   128
 43
0.0
 10
-19.6704049254
 20
57.2126943721
 10
-19.6101956626
 20
56.9064118299
 10
-19.4373787698
 20
56.6464826118
 10
-19.1782640523
 20
56.472478585
 10
-18.8722993769
 20
56.4108902852
 10
-18.5660650919
 20
56.4710939728
 10
-18.3061825912
 20
56.6439241821
 10
-18.1322166297
 20
56.9030690804
 10
-18.070651948
 20
57.2090762062
  0
LWPOLYLINE
  5
A5
330
1F
100
AcDbEntity
  8
0
  6
Continuous
 62
     7
100
AcDbPolyline
 90
       17
 70
   128
 43
0.0
 10
-17.9132813727
 20
57.7010913756
 10
-18.097172178
 20
58.0452133719
 10
-18.3987320608
 20
58.2927644776
 10
-18.7720512626
 20
58.406057281
 10
-19.1602953191
 20
58.3678439797
 10
-19.504357592
 20
58.1839422024
 10
-19.7518577193
 20
57.8823493278
 10
-19.8651160502
 20
57.5089801369
 10
-19.8268900305
 20
57.1206767046
 10
-19.6429992252
 20
56.7765547083
 10
-19.3414393424
 20
56.5290036026
 10
-18.9681201406
 20
56.4157107992
 10
-18.5798760841
 20
56.4539241005
 10
-18.2358138112
 20
56.6378258777
 10
-17.9883136838
 20
56.9394187524
 10
-17.8750553529
 20
57.3127879433
 10
-17.9132813727
 20
57.7010913756
  0
LWPOLYLINE
  5
A6
330
1F
100
AcDbEntity
  8
0
  6
Continuous
 62
     7
100
AcDbPolyline
 90
        9
 70
   128
 43
0.0
 10
-18.1947812756
 20
12.6094121841
 10
-18.3006305655
 20
12.8495477444
 10
-18.4784787258
 20
13.0425088199
 10
-18.7091874653
 20
13.1675308139
 10
-18.9679301504
 20
13.211160074
 10
-19.2268634069
 20
13.1687016431
 10
-19.4581233531
 20
13.044724485
 10
-19.63682404
 20
12.8525698171
 10
-19.7437354355
 20
12.6129154582
  0
LWPOLYLINE
  5
A7
330
1F
100
AcDbEntity
  8
0
  6
Continuous
 62
     7
100
AcDbPolyline
 90
        9
 70
   128
 43
0.0
 10
-19.7348807343
 20
16.6128904777
 10
-19.6290314444
 20
16.3727549174
 10
-19.4511832841
 20
16.1797938419
 10
-19.2204745447
 20
16.0547718479
 10
-18.9617318595
 20
16.0111425877
 10
-18.702798603
 20
16.0536010187
 10
-18.4715386568
 20
16.1775781768
 10
-18.29283797
 20
16.3697328447
 10
-18.1859265744
 20
16.6093872036
  0
LWPOLYLINE
  5
A8
330
1F
100
AcDbEntity
  8
0
  6
Continuous
 62
     7
100
AcDbPolyline
 90
        9
 70
   128
 43
0.0
 10
11.5056669633
 20
3.342249988
 10
11.5338367929
 20
3.0495511556
 10
11.6185593309
 20
2.7679702213
 10
11.7565787378
 20
2.5083281826
 10
11.942591005
 20
2.2806029374
 10
12.1694477854
 20
2.0935458391
 10
12.4284311003
 20
1.9543453871
 10
12.709588366
 20
1.8683509768
 10
13.0021148666
 20
1.8388673251
  0
LWPOLYLINE
  5
A9
330
1F
100
AcDbEntity
  8
0
  6
Continuous
 62
     7
100
AcDbPolyline
 90
        9
 70
   128
 43
0.0
 10
0.7867960791
 20
61.8456351364
 10
3.1444834751
 20
57.5535900598
 10
6.8358532594
 20
54.3361526008
 10
11.4092548914
 20
52.5869862103
 10
16.3051184987
 20
52.5201068204
 10
20.9244199861
 20
54.1436973321
 10
24.7019734915
 20
57.2591064111
 10
27.1755836286
 20
61.4851540954
 10
28.0425965263
 20
66.3047703451
  0
LWPOLYLINE
  5
AA
330
1F
100
AcDbEntity
  8
0
  6
Continuous
 62
     7
100
AcDbPolyline
 90
        9
 70
   128
 43
0.0
 10
24.0498183269
 20
46.7138250972
 10
24.3560526118
 20
46.7740287848
 10
24.6159351125
 20
46.9468589941
 10
24.7899010741
 20
47.2060038924
 10
24.8514657558
 20
47.5120110181
 10
24.7912564931
 20
47.8182935603
 10
24.6184396003
 20
48.0782227784
 10
24.3593248827
 20
48.2522268052
 10
24.0533602074
 20
48.313815105
  0
LWPOLYLINE
  5
AB
330
1F
100
AcDbEntity
  8
0
  6
Continuous
 62
     7
100
AcDbPolyline
 90
        9
 70
   128
 43
0.0
 10
14.1548886597
 20
48.3362025067
 10
13.8486543747
 20
48.2759988191
 10
13.588771874
 20
48.1031686098
 10
13.4148059125
 20
47.8440237115
 10
13.3532412308
 20
47.5380165858
 10
13.4134504935
 20
47.2317340436
 10
13.5862673863
 20
46.9718048255
 10
13.8453821038
 20
46.7978007987
 10
14.1513467792
 20
46.7362124989
  0
LWPOLYLINE
  5
AC
330
1F
100
AcDbEntity
  8
0
  6
Continuous
 62
     7
100
AcDbPolyline
 90
        9
 70
   128
 43
0.0
 10
24.0462764464
 20
45.1138350894
 10
24.3525107313
 20
45.174038777
 10
24.612393232
 20
45.3468689863
 10
24.7863591936
 20
45.6060138846
 10
24.8479238753
 20
45.9120210103
 10
24.7877146126
 20
46.2183035525
 10
24.6148977198
 20
46.4782327706
 10
24.3557830022
 20
46.6522367974
 10
24.0498183269
 20
46.7138250972
  0
LWPOLYLINE
  5
AD
330
1F
100
AcDbEntity
  8
0
  6
Continuous
 62
     7
100
AcDbPolyline
 90
        9
 70
   128
 43
0.0
 10
14.1513467792
 20
46.7362124989
 10
13.8451124942
 20
46.6760088113
 10
13.5852299935
 20
46.503178602
 10
13.411264032
 20
46.2440337037
 10
13.3496993503
 20
45.938026578
 10
13.409908613
 20
45.6317440358
 10
13.5827255058
 20
45.3718148177
 10
13.8418402233
 20
45.1978107909
 10
14.1478048987
 20
45.1362224911
  0
LWPOLYLINE
  5
AE
330
1F
100
AcDbEntity
  8
0
  6
Continuous
 62
     7
100
AcDbPolyline
 90
        9
 70
   128
 43
0.0
 10
24.0427345659
 20
43.5138450815
 10
24.3489688508
 20
43.5740487692
 10
24.6088513515
 20
43.7468789784
 10
24.7828173131
 20
44.0060238768
 10
24.8443819948
 20
44.3120310025
 10
24.7841727321
 20
44.6183135447
 10
24.6113558393
 20
44.8782427628
 10
24.3522411217
 20
45.0522467896
 10
24.0462764464
 20
45.1138350894
  0
LWPOLYLINE
  5
AF
330
1F
100
AcDbEntity
  8
0
  6
Continuous
 62
     7
100
AcDbPolyline
 90
        9
 70
   128
 43
0.0
 10
14.1478048987
 20
45.1362224911
 10
13.8415706137
 20
45.0760188035
 10
13.581688113
 20
44.9031885942
 10
13.4077221515
 20
44.6440436959
 10
13.3461574698
 20
44.3380365702
 10
13.4063667325
 20
44.0317540279
 10
13.5791836253
 20
43.7718248098
 10
13.8382983428
 20
43.597820783
 10
14.1442630182
 20
43.5362324833
  0
LWPOLYLINE
  5
B0
330
1F
100
AcDbEntity
  8
0
  6
Continuous
 62
     7
100
AcDbPolyline
 90
        9
 70
   128
 43
0.0
 10
24.0391926854
 20
41.9138550737
 10
24.3454269703
 20
41.9740587613
 10
24.605309471
 20
42.1468889706
 10
24.7792754326
 20
42.4060338689
 10
24.8408401143
 20
42.7120409947
 10
24.7806308516
 20
43.0183235369
 10
24.6078139588
 20
43.278252755
 10
24.3486992412
 20
43.4522567818
 10
24.0427345659
 20
43.5138450815
  0
LWPOLYLINE
  5
B1
330
1F
100
AcDbEntity
  8
0
  6
Continuous
 62
     7
100
AcDbPolyline
 90
        9
 70
   128
 43
0.0
 10
14.1442630182
 20
43.5362324833
 10
13.8380287332
 20
43.4760287957
 10
13.5781462325
 20
43.3031985864
 10
13.404180271
 20
43.0440536881
 10
13.3426155893
 20
42.7380465623
 10
13.402824852
 20
42.4317640201
 10
13.5756417448
 20
42.171834802
 10
13.8347564623
 20
41.9978307752
 10
14.1407211377
 20
41.9362424755
  0
LWPOLYLINE
  5
B2
330
1F
100
AcDbEntity
  8
0
  6
Continuous
 62
     7
100
AcDbPolyline
 90
        9
 70
   128
 43
0.0
 10
24.0356508049
 20
40.3138650659
 10
24.3418850898
 20
40.3740687535
 10
24.6017675905
 20
40.5468989628
 10
24.7757335521
 20
40.8060438611
 10
24.8372982338
 20
41.1120509868
 10
24.7770889711
 20
41.4183335291
 10
24.6042720783
 20
41.6782627472
 10
24.3451573607
 20
41.852266774
 10
24.0391926854
 20
41.9138550737
  0
LWPOLYLINE
  5
B3
330
1F
100
AcDbEntity
  8
0
  6
Continuous
 62
     7
100
AcDbPolyline
 90
        9
 70
   128
 43
0.0
 10
14.1407211377
 20
41.9362424755
 10
13.8344868527
 20
41.8760387878
 10
13.574604352
 20
41.7032085786
 10
13.4006383905
 20
41.4440636802
 10
13.3390737088
 20
41.1380565545
 10
13.3992829715
 20
40.8317740123
 10
13.5720998643
 20
40.5718447942
 10
13.8312145818
 20
40.3978407674
 10
14.1371792572
 20
40.3362524676
  0
LWPOLYLINE
  5
B4
330
1F
100
AcDbEntity
  8
0
  6
Continuous
 62
     7
100
AcDbPolyline
 90
        9
 70
   128
 43
0.0
 10
24.0321089244
 20
38.7138750581
 10
24.3383432093
 20
38.7740787457
 10
24.59822571
 20
38.946908955
 10
24.7721916716
 20
39.2060538533
 10
24.8337563533
 20
39.512060979
 10
24.7735470906
 20
39.8183435212
 10
24.6007301978
 20
40.0782727393
 10
24.3416154802
 20
40.2522767661
 10
24.0356508049
 20
40.3138650659
  0
LWPOLYLINE
  5
B5
330
1F
100
AcDbEntity
  8
0
  6
Continuous
 62
     7
100
AcDbPolyline
 90
        9
 70
   128
 43
0.0
 10
14.1371792572
 20
40.3362524676
 10
13.8309449722
 20
40.27604878
 10
13.5710624715
 20
40.1032185707
 10
13.39709651
 20
39.8440736724
 10
13.3355318283
 20
39.5380665467
 10
13.395741091
 20
39.2317840045
 10
13.5685579838
 20
38.9718547864
 10
13.8276727013
 20
38.7978507596
 10
14.1336373767
 20
38.7362624598
  0
LWPOLYLINE
  5
B6
330
1F
100
AcDbEntity
  8
0
  6
Continuous
 62
     7
100
AcDbPolyline
 90
        9
 70
   128
 43
0.0
 10
24.0285670439
 20
37.1138850503
 10
24.3348013288
 20
37.1740887379
 10
24.5946838295
 20
37.3469189472
 10
24.7686497911
 20
37.6060638455
 10
24.8302144728
 20
37.9120709712
 10
24.7700052101
 20
38.2183535134
 10
24.5971883173
 20
38.4782827315
 10
24.3380735997
 20
38.6522867583
 10
24.0321089244
 20
38.7138750581
  0
LWPOLYLINE
  5
B7
330
1F
100
AcDbEntity
  8
0
  6
Continuous
 62
     7
100
AcDbPolyline
 90
        9
 70
   128
 43
0.0
 10
14.1336373767
 20
38.7362624598
 10
13.8274030917
 20
38.6760587722
 10
13.567520591
 20
38.5032285629
 10
13.3935546295
 20
38.2440836646
 10
13.3319899478
 20
37.9380765389
 10
13.3921992105
 20
37.6317939967
 10
13.5650161033
 20
37.3718647786
 10
13.8241308208
 20
37.1978607518
 10
14.1300954962
 20
37.136272452
  0
LWPOLYLINE
  5
B8
330
1F
100
AcDbEntity
  8
0
  6
Continuous
 62
     7
100
AcDbPolyline
 90
        9
 70
   128
 43
0.0
 10
24.0250251634
 20
35.5138950424
 10
24.3312594483
 20
35.57409873
 10
24.591141949
 20
35.7469289393
 10
24.7651079106
 20
36.0060738377
 10
24.8266725923
 20
36.3120809634
 10
24.7664633296
 20
36.6183635056
 10
24.5936464368
 20
36.8782927237
 10
24.3345317192
 20
37.0522967505
 10
24.0285670439
 20
37.1138850503
  0
LWPOLYLINE
  5
B9
330
1F
100
AcDbEntity
  8
0
  6
Continuous
 62
     7
100
AcDbPolyline
 90
        9
 70
   128
 43
0.0
 10
14.1300954962
 20
37.136272452
 10
13.8238612112
 20
37.0760687644
 10
13.5639787105
 20
36.9032385551
 10
13.390012749
 20
36.6440936568
 10
13.3284480673
 20
36.3380865311
 10
13.38865733
 20
36.0318039888
 10
13.5614742228
 20
35.7718747707
 10
13.8205889403
 20
35.5978707439
 10
14.1265536157
 20
35.5362824442
  0
LWPOLYLINE
  5
BA
330
1F
100
AcDbEntity
  8
0
  6
Continuous
 62
     7
100
AcDbPolyline
 90
        9
 70
   128
 43
0.0
 10
24.0214832829
 20
33.9139050346
 10
24.3277175678
 20
33.9741087222
 10
24.5876000685
 20
34.1469389315
 10
24.7615660301
 20
34.4060838298
 10
24.8231307118
 20
34.7120909556
 10
24.7629214491
 20
35.0183734978
 10
24.5901045563
 20
35.2783027159
 10
24.3309898387
 20
35.4523067427
 10
24.0250251634
 20
35.5138950424
  0
LWPOLYLINE
  5
BB
330
1F
100
AcDbEntity
  8
0
  6
Continuous
 62
     7
100
AcDbPolyline
 90
        9
 70
   128
 43
0.0
 10
14.1265536157
 20
35.5362824442
 10
13.8203193307
 20
35.4760787566
 10
13.56043683
 20
35.3032485473
 10
13.3864708685
 20
35.044103649
 10
13.3249061868
 20
34.7380965232
 10
13.3851154495
 20
34.431813981
 10
13.5579323423
 20
34.1718847629
 10
13.8170470598
 20
33.9978807361
 10
14.1230117352
 20
33.9362924364
  0
LWPOLYLINE
  5
BC
330
1F
100
AcDbEntity
  8
0
  6
Continuous
 62
     7
100
AcDbPolyline
 90
        9
 70
   128
 43
0.0
 10
24.0179414024
 20
32.3139150268
 10
24.3241756873
 20
32.3741187144
 10
24.584058188
 20
32.5469489237
 10
24.7580241496
 20
32.806093822
 10
24.8195888313
 20
33.1121009477
 10
24.7593795686
 20
33.41838349
 10
24.5865626758
 20
33.6783127081
 10
24.3274479582
 20
33.8523167349
 10
24.0214832829
 20
33.9139050346
  0
LWPOLYLINE
  5
BD
330
1F
100
AcDbEntity
  8
0
  6
Continuous
 62
     7
100
AcDbPolyline
 90
        9
 70
   128
 43
0.0
 10
14.1230117352
 20
33.9362924364
 10
13.8167774502
 20
33.8760887487
 10
13.5568949495
 20
33.7032585395
 10
13.382928988
 20
33.4441136411
 10
13.3213643063
 20
33.1381065154
 10
13.381573569
 20
32.8318239732
 10
13.5543904618
 20
32.5718947551
 10
13.8135051793
 20
32.3978907283
 10
14.1194698547
 20
32.3363024285
  0
LWPOLYLINE
  5
BE
330
1F
100
AcDbEntity
  8
0
  6
Continuous
 62
     7
100
AcDbPolyline
 90
        9
 70
   128
 43
0.0
 10
24.0143995219
 20
30.713925019
 10
24.3206338068
 20
30.7741287066
 10
24.5805163075
 20
30.9469589159
 10
24.7544822691
 20
31.2061038142
 10
24.8160469508
 20
31.5121109399
 10
24.7558376881
 20
31.8183934821
 10
24.5830207953
 20
32.0783227002
 10
24.3239060777
 20
32.252326727
 10
24.0179414024
 20
32.3139150268
  0
LWPOLYLINE
  5
BF
330
1F
100
AcDbEntity
  8
0
  6
Continuous
 62
     7
100
AcDbPolyline
 90
        9
 70
   128
 43
0.0
 10
14.1194698547
 20
32.3363024285
 10
13.8132355697
 20
32.2760987409
 10
13.553353069
 20
32.1032685316
 10
13.3793871075
 20
31.8441236333
 10
13.3178224258
 20
31.5381165076
 10
13.3780316885
 20
31.2318339654
 10
13.5508485813
 20
30.9719047473
 10
13.8099632988
 20
30.7979007205
 10
14.1159279742
 20
30.7363124207
  0
LWPOLYLINE
  5
C0
330
1F
100
AcDbEntity
  8
0
  6
Continuous
 62
     7
100
AcDbPolyline
 90
        9
 70
   128
 43
0.0
 10
24.0108576414
 20
29.1139350112
 10
24.3170919263
 20
29.1741386988
 10
24.576974427
 20
29.3469689081
 10
24.7509403886
 20
29.6061138064
 10
24.8125050703
 20
29.9121209321
 10
24.7522958076
 20
30.2184034743
 10
24.5794789148
 20
30.4783326924
 10
24.3203641972
 20
30.6523367192
 10
24.0143995219
 20
30.713925019
  0
LWPOLYLINE
  5
C1
330
1F
100
AcDbEntity
  8
0
  6
Continuous
 62
     7
100
AcDbPolyline
 90
        9
 70
   128
 43
0.0
 10
14.1159279742
 20
30.7363124207
 10
13.8096936892
 20
30.6761087331
 10
13.5498111885
 20
30.5032785238
 10
13.375845227
 20
30.2441336255
 10
13.3142805453
 20
29.9381264998
 10
13.374489808
 20
29.6318439576
 10
13.5473067008
 20
29.3719147395
 10
13.8064214183
 20
29.1979107127
 10
14.1123860937
 20
29.1363224129
  0
LWPOLYLINE
  5
C2
330
1F
100
AcDbEntity
  8
0
  6
Continuous
 62
     7
100
AcDbPolyline
 90
        9
 70
   128
 43
0.0
 10
24.0073157609
 20
27.5139450033
 10
24.3135500458
 20
27.5741486909
 10
24.5734325465
 20
27.7469789002
 10
24.7473985081
 20
28.0061237985
 10
24.8089631898
 20
28.3121309243
 10
24.7487539271
 20
28.6184134665
 10
24.5759370343
 20
28.8783426846
 10
24.3168223167
 20
29.0523467114
 10
24.0108576414
 20
29.1139350112
  0
LWPOLYLINE
  5
C3
330
1F
100
AcDbEntity
  8
0
  6
Continuous
 62
     7
100
AcDbPolyline
 90
        9
 70
   128
 43
0.0
 10
14.1123860937
 20
29.1363224129
 10
13.8061518087
 20
29.0761187253
 10
13.546269308
 20
28.903288516
 10
13.3723033465
 20
28.6441436177
 10
13.3107386648
 20
28.3381364919
 10
13.3709479275
 20
28.0318539497
 10
13.5437648203
 20
27.7719247316
 10
13.8028795378
 20
27.5979207048
 10
14.1088442132
 20
27.5363324051
  0
LWPOLYLINE
  5
C4
330
1F
100
AcDbEntity
  8
0
  6
Continuous
 62
     7
100
AcDbPolyline
 90
        9
 70
   128
 43
0.0
 10
24.0037738804
 20
25.9139549955
 10
24.3100081653
 20
25.9741586831
 10
24.569890666
 20
26.1469888924
 10
24.7438566276
 20
26.4061337907
 10
24.8054213093
 20
26.7121409165
 10
24.7452120466
 20
27.0184234587
 10
24.5723951538
 20
27.2783526768
 10
24.3132804362
 20
27.4523567036
 10
24.0073157609
 20
27.5139450033
  0
LWPOLYLINE
  5
C5
330
1F
100
AcDbEntity
  8
0
  6
Continuous
 62
     7
100
AcDbPolyline
 90
        9
 70
   128
 43
0.0
 10
14.1088442132
 20
27.5363324051
 10
13.8026099282
 20
27.4761287175
 10
13.5427274275
 20
27.3032985082
 10
13.368761466
 20
27.0441536099
 10
13.3071967843
 20
26.7381464841
 10
13.367406047
 20
26.4318639419
 10
13.5402229398
 20
26.1719347238
 10
13.7993376573
 20
25.997930697
 10
14.1053023327
 20
25.9363423972
  0
LWPOLYLINE
  5
C6
330
1F
100
AcDbEntity
  8
0
  6
Continuous
 62
     7
100
AcDbPolyline
 90
        9
 70
   128
 43
0.0
 10
24.0002319999
 20
24.3139649877
 10
24.3064662848
 20
24.3741686753
 10
24.5663487855
 20
24.5469988846
 10
24.7403147471
 20
24.8061437829
 10
24.8018794288
 20
25.1121509086
 10
24.7416701661
 20
25.4184334508
 10
24.5688532733
 20
25.6783626689
 10
24.3097385557
 20
25.8523666957
 10
24.0037738804
 20
25.9139549955
  0
LWPOLYLINE
  5
C7
330
1F
100
AcDbEntity
  8
0
  6
Continuous
 62
     7
100
AcDbPolyline
 90
        9
 70
   128
 43
0.0
 10
14.1053023327
 20
25.9363423972
 10
13.7990680477
 20
25.8761387096
 10
13.539185547
 20
25.7033085003
 10
13.3652195855
 20
25.444163602
 10
13.3036549038
 20
25.1381564763
 10
13.3638641665
 20
24.8318739341
 10
13.5366810593
 20
24.571944716
 10
13.7957957768
 20
24.3979406892
 10
14.1017604522
 20
24.3363523894
  0
LWPOLYLINE
  5
C8
330
1F
100
AcDbEntity
  8
0
  6
Continuous
 62
     7
100
AcDbPolyline
 90
        9
 70
   128
 43
0.0
 10
23.9966901194
 20
22.7139749799
 10
24.3029244043
 20
22.7741786675
 10
24.562806905
 20
22.9470088768
 10
24.7367728666
 20
23.2061537751
 10
24.7983375483
 20
23.5121609008
 10
24.7381282856
 20
23.818443443
 10
24.5653113928
 20
24.0783726611
 10
24.3061966752
 20
24.2523766879
 10
24.0002319999
 20
24.3139649877
  0
LWPOLYLINE
  5
C9
330
1F
100
AcDbEntity
  8
0
  6
Continuous
 62
     7
100
AcDbPolyline
 90
        9
 70
   128
 43
0.0
 10
14.1017604522
 20
24.3363523894
 10
13.7955261672
 20
24.2761487018
 10
13.5356436665
 20
24.1033184925
 10
13.361677705
 20
23.8441735942
 10
13.3001130233
 20
23.5381664685
 10
13.360322286
 20
23.2318839263
 10
13.5331391788
 20
22.9719547082
 10
13.7922538963
 20
22.7979506814
 10
14.0982185717
 20
22.7363623816
  0
LWPOLYLINE
  5
CA
330
1F
100
AcDbEntity
  8
0
  6
Continuous
 62
     7
100
AcDbPolyline
 90
        9
 70
   128
 43
0.0
 10
23.9931482389
 20
21.1139849721
 10
24.2993825238
 20
21.1741886597
 10
24.5592650245
 20
21.3470188689
 10
24.7332309861
 20
21.6061637673
 10
24.7947956678
 20
21.912170893
 10
24.7345864051
 20
22.2184534352
 10
24.5617695123
 20
22.4783826533
 10
24.3026547947
 20
22.6523866801
 10
23.9966901194
 20
22.7139749799
  0
LWPOLYLINE
  5
CB
330
1F
100
AcDbEntity
  8
0
  6
Continuous
 62
     7
100
AcDbPolyline
 90
        9
 70
   128
 43
0.0
 10
14.0982185717
 20
22.7363623816
 10
13.7919842867
 20
22.676158694
 10
13.532101786
 20
22.5033284847
 10
13.3581358245
 20
22.2441835864
 10
13.2965711428
 20
21.9381764607
 10
13.3567804055
 20
21.6318939184
 10
13.5295972983
 20
21.3719647003
 10
13.7887120158
 20
21.1979606735
 10
14.0946766912
 20
21.1363723738
  0
LWPOLYLINE
  5
CC
330
1F
100
AcDbEntity
  8
0
  6
Continuous
 62
     7
100
AcDbPolyline
 90
        9
 70
   128
 43
0.0
 10
20.2401853179
 20
19.5224750406
 10
20.162144223
 20
19.514965668
 10
20.0870681754
 20
19.4923731968
 10
20.0178423057
 20
19.4555658428
 10
19.9571269251
 20
19.4059580921
 10
19.9072552917
 20
19.3454563427
 10
19.8701439443
 20
19.276385643
 10
19.8472190513
 20
19.201400341
 10
19.8393616034
 20
19.1233820801
  0
LWPOLYLINE
  5
CD
330
1F
100
AcDbEntity
  8
0
  6
Continuous
 62
     7
100
AcDbPolyline
 90
        9
 70
   128
 43
0.0
 10
20.2437271984
 20
21.1224650484
 10
19.8535217237
 20
21.0849181856
 10
19.478141486
 20
20.9719558294
 10
19.1320121373
 20
20.7879190596
 10
18.8284352343
 20
20.5398803061
 10
18.5790770671
 20
20.2373715592
 10
18.3935203304
 20
19.8920180604
 10
18.2788958654
 20
19.5170915508
 10
18.239608626
 20
19.127000246
  0
LWPOLYLINE
  5
CE
330
1F
100
AcDbEntity
  8
0
  6
Continuous
 62
     7
100
AcDbPolyline
 90
        9
 70
   128
 43
0.0
 10
22.7397993451
 20
19.5168216563
 10
23.0460336301
 20
19.5770253439
 10
23.3059161308
 20
19.7498555532
 10
23.4798820923
 20
20.0090004515
 10
23.5414467741
 20
20.3150075772
 10
23.4812375113
 20
20.6212901194
 10
23.3084206185
 20
20.8812193375
 10
23.049305901
 20
21.0552233643
 10
22.7433412256
 20
21.1168116641
  0
LWPOLYLINE
  5
CF
330
1F
100
AcDbEntity
  8
0
  6
Continuous
 62
     7
100
AcDbPolyline
 90
        9
 70
   128
 43
0.0
 10
18.2245556339
 20
12.3270427128
 10
18.2847648967
 20
12.0207601706
 10
18.4575817895
 20
11.7608309525
 10
18.716696507
 20
11.5868269257
 10
19.0226611824
 20
11.5252386259
 10
19.3288954673
 20
11.5854423135
 10
19.588777968
 20
11.7582725228
 10
19.7627439296
 20
12.0174174211
 10
19.8243086113
 20
12.3234245469
  0
LWPOLYLINE
  5
D0
330
1F
100
AcDbEntity
  8
0
  6
Continuous
 62
     7
100
AcDbPolyline
 90
        9
 70
   128
 43
0.0
 10
19.8243086113
 20
12.3234245469
 10
19.7640993486
 20
12.6297070891
 10
19.5912824558
 20
12.8896363072
 10
19.3321677382
 20
13.063640334
 10
19.0262030629
 20
13.1252286337
 10
18.7199687779
 20
13.0650249461
 10
18.4600862772
 20
12.8921947368
 10
18.2861203157
 20
12.6330498385
 10
18.2245556339
 20
12.3270427128
  0
LWPOLYLINE
  5
D1
330
1F
100
AcDbEntity
  8
0
  6
Continuous
 62
     7
100
AcDbPolyline
 90
        9
 70
   128
 43
0.0
 10
17.907851581
 20
49.9277124381
 10
17.9858926759
 20
49.9352218107
 10
18.0609687235
 20
49.957814282
 10
18.1301945932
 20
49.9946216359
 10
18.1909099738
 20
50.0442293866
 10
18.2407816072
 20
50.104731136
 10
18.2778929546
 20
50.1738018358
 10
18.3008178476
 20
50.2487871377
 10
18.3086752955
 20
50.3268053986
  0
LWPOLYLINE
  5
D2
330
1F
100
AcDbEntity
  8
0
  6
Continuous
 62
     7
100
AcDbPolyline
 90
        9
 70
   128
 43
0.0
 10
17.9043097005
 20
48.3277224303
 10
18.2945151752
 20
48.3652692931
 10
18.6698954129
 20
48.4782316493
 10
19.0160247616
 20
48.6622684191
 10
19.3196016646
 20
48.9103071726
 10
19.5689598318
 20
49.2128159195
 10
19.7545165685
 20
49.5581694184
 10
19.8691410335
 20
49.9330959279
 10
19.9084282729
 20
50.3231872327
  0
LWPOLYLINE
  5
D3
330
1F
100
AcDbEntity
  8
0
  6
Continuous
 62
     7
100
AcDbPolyline
 90
        9
 70
   128
 43
0.0
 10
15.4082375538
 20
49.9333658224
 10
15.1020032688
 20
49.8731621348
 10
14.8421207681
 20
49.7003319255
 10
14.6681548066
 20
49.4411870272
 10
14.6065901248
 20
49.1351799015
 10
14.6667993876
 20
48.8288973593
 10
14.8396162804
 20
48.5689681412
 10
15.0987309979
 20
48.3949641144
 10
15.4046956733
 20
48.3333758146
  0
LWPOLYLINE
  5
D4
330
1F
100
AcDbEntity
  8
0
  6
Continuous
 62
     7
100
AcDbPolyline
 90
        9
 70
   128
 43
0.0
 10
19.923481265
 20
57.1231447659
 10
19.8632720022
 20
57.4294273081
 10
19.6904551094
 20
57.6893565262
 10
19.4313403919
 20
57.863360553
 10
19.1253757165
 20
57.9249488528
 10
18.8191414316
 20
57.8647451652
 10
18.5592589309
 20
57.6919149559
 10
18.3852929693
 20
57.4327700576
 10
18.3237282876
 20
57.1267629319
  0
LWPOLYLINE
  5
D5
330
1F
100
AcDbEntity
  8
0
  6
Continuous
 62
     7
100
AcDbPolyline
 90
        9
 70
   128
 43
0.0
 10
18.3237282876
 20
57.1267629319
 10
18.3839375503
 20
56.8204803896
 10
18.5567544432
 20
56.5605511715
 10
18.8158691607
 20
56.3865471447
 10
19.121833836
 20
56.324958845
 10
19.428068121
 20
56.3851625326
 10
19.6879506217
 20
56.5579927419
 10
19.8619165832
 20
56.8171376402
 10
19.923481265
 20
57.1231447659
  0
LWPOLYLINE
  5
D6
330
1F
100
AcDbEntity
  8
0
  6
Continuous
 62
     7
100
AcDbPolyline
 90
       17
 70
   128
 43
0.0
 10
20.0808518407
 20
57.6151599346
 10
19.8969610353
 20
57.9592819309
 10
19.5954011525
 20
58.2068330366
 10
19.2220819507
 20
58.32012584
 10
18.8338378942
 20
58.2819125387
 10
18.4897756213
 20
58.0980107614
 10
18.242275494
 20
57.7964178868
 10
18.1290171631
 20
57.4230486959
 10
18.1672431828
 20
57.0347452636
 10
18.3511339881
 20
56.6906232673
 10
18.652693871
 20
56.4430721616
 10
19.0260130728
 20
56.3297793582
 10
19.4142571292
 20
56.3679926595
 10
19.7583194022
 20
56.5518944368
 10
20.0058195295
 20
56.8534873114
 10
20.1190778604
 20
57.2268565023
 10
20.0808518407
 20
57.6151599346
  0
LWPOLYLINE
  5
D7
330
1F
100
AcDbEntity
  8
0
  6
Continuous
 62
     7
100
AcDbPolyline
 90
        9
 70
   128
 43
0.0
 10
19.7993519376
 20
12.5234807429
 10
19.693502648
 20
12.7636163035
 10
19.5156544877
 20
12.9565773791
 10
19.2849457482
 20
13.0815993733
 10
19.026203063
 20
13.1252286335
 10
18.7672698063
 20
13.0827702026
 10
18.5360098601
 20
12.9587930443
 10
18.3573091732
 20
12.7666383763
 10
18.2503977778
 20
12.5269840172
  0
LWPOLYLINE
  5
D8
330
1F
100
AcDbEntity
  8
0
  6
Continuous
 62
     7
100
AcDbPolyline
 90
        9
 70
   128
 43
0.0
 10
18.259252479
 20
16.5269590367
 10
18.3651017688
 20
16.2868234764
 10
18.5429499291
 20
16.0938624009
 10
18.7736586686
 20
15.9688404068
 10
19.0324013537
 20
15.9252111467
 10
19.2913346102
 20
15.9676695776
 10
19.5225945564
 20
16.0916467357
 10
19.7012952433
 20
16.2838014036
 10
19.8082066389
 20
16.5234557624
  0
LWPOLYLINE
  5
D9
330
1F
100
AcDbEntity
  8
0
  6
Continuous
 62
     7
100
AcDbPolyline
 90
        9
 70
   128
 43
0.0
 10
-4.8346124959
 20
54.8891470567
 10
-4.8958108009
 20
54.97380022
 10
-4.9732594341
 20
55.0438891285
 10
-5.0635778894
 20
55.0963545158
 10
-5.1628239137
 20
55.1289063537
 10
-5.2666655806
 20
55.1401238076
 10
-5.370570371
 20
55.129517254
 10
-5.4700030107
 20
55.0975496516
 10
-5.5606234278
 20
55.0456163341
  0
LWPOLYLINE
  5
DA
330
1F
100
AcDbEntity
  8
0
  6
Continuous
 62
     7
100
AcDbPolyline
 90
        9
 70
   128
 43
0.0
 10
-1.6226790415
 20
49.2963793064
 10
-1.3058078012
 20
48.8814495884
 10
-0.8923617774
 20
48.5626776447
 10
-0.4105166332
 20
48.3617872566
 10
0.106890681
 20
48.2924687719
 10
0.6245997118
 20
48.359446131
 10
1.1073294444
 20
48.5581549373
 10
1.5221826451
 20
48.8750535142
 10
1.8408877541
 20
49.2885457473
  0
LWPOLYLINE
  5
DB
330
1F
100
AcDbEntity
  8
0
  6
Continuous
 62
     7
100
AcDbPolyline
 90
        9
 70
   128
 43
0.0
 10
5.8042466279
 20
55.0199123746
 10
5.7138570456
 20
55.072255083
 10
5.6145669335
 20
55.1046721372
 10
5.5107101425
 20
55.1157485857
 10
5.4068198518
 20
55.1050009598
 10
5.3074307026
 20
55.0728983757
 10
5.2168808689
 20
55.0208420587
 10
5.1391227026
 20
54.9511041819
 10
5.0775502207
 20
54.8667286896
  0
LINE
  5
DC
330
1F
100
AcDbEntity
  8
0
  6
CENTERX2
 62
     7
100
AcDbLine
 10
0.158636462
 20
71.6678290145
 30
0.0
 11
-0.1198438923
 21
-54.1313853504
 31
0.0
  0
LINE
  5
DD
330
1F
100
AcDbEntity
  8
0
  6
Continuous
 62
     7
100
AcDbLine
 10
31.1410110824
 20
65.7977632711
 30
0.0
 11
30.9273914147
 21
-30.7016340756
 31
0.0
  0
LINE
  5
DE
330
1F
100
AcDbEntity
  8
0
  6
Continuous
 62
     7
100
AcDbLine
 10
-30.3483871489
 20
66.4368334018
 30
0.0
 11
-30.8494167919
 21
65.9379672012
 31
0.0
  0
LINE
  5
DF
330
1F
100
AcDbEntity
  8
0
  6
Continuous
 62
     7
100
AcDbLine
 10
-30.8494167919
 20
65.9379672012
 30
0.0
 11
-31.0431133818
 21
-21.5614863515
 31
0.0
  0
LINE
  5
E0
330
1F
100
AcDbEntity
  8
0
  6
Continuous
 62
     7
100
AcDbLine
 10
6.4214337769
 20
-35.0462034312
 30
0.0
 11
6.386900442
 21
-50.6461060074
 31
0.0
  0
LINE
  5
E1
330
1F
100
AcDbEntity
  8
0
  6
Continuous
 62
     7
100
AcDbLine
 10
5.8858707989
 20
-51.144972208
 30
0.0
 11
6.386900442
 21
-50.6461060074
 31
0.0
  0
LINE
  5
E2
330
1F
100
AcDbEntity
  8
0
  6
Continuous
 62
     7
100
AcDbLine
 10
-6.5765591645
 20
-35.0168058329
 30
0.0
 11
-6.6110924994
 21
-50.6167084092
 31
0.0
  0
LINE
  5
E3
330
1F
100
AcDbEntity
  8
0
  6
Continuous
 62
     7
100
AcDbLine
 10
-31.0497544077
 20
-24.5614676162
 30
0.0
 11
-31.0630364596
 21
-30.5614301455
 31
0.0
  0
LINE
  5
E4
330
1F
100
AcDbEntity
  8
0
  6
Continuous
 62
     7
100
AcDbLine
 10
30.4263617716
 20
-31.2005002762
 30
0.0
 11
30.9273914147
 21
-30.7016340756
 31
0.0
  0
LINE
  5
E5
330
1F
100
AcDbEntity
  8
0
  6
Continuous
 62
     7
100
AcDbLine
 10
-11.3818532162
 20
52.6012020989
 30
0.0
 11
-11.4615615728
 21
16.5941786878
 31
0.0
  0
LINE
  5
E6
330
1F
100
AcDbEntity
  8
0
  6
Continuous
 62
     7
100
AcDbLine
 10
-11.470416274
 20
12.5942036683
 30
0.0
 11
-11.4907820869
 21
3.3942611233
 31
0.0
  0
LINE
  5
E7
330
1F
100
AcDbEntity
  8
0
  6
Continuous
 62
     7
100
AcDbLine
 10
-30.5642204918
 20
-31.0625576998
 30
0.0
 11
-6.5679258308
 21
-31.1168301889
 31
0.0
  0
LINE
  5
E8
330
1F
100
AcDbEntity
  8
0
  6
Continuous
 62
     7
100
AcDbLine
 10
-29.1875896365
 20
68.9342049266
 30
0.0
 11
-0.4974614759
 21
68.8693163807
 31
0.0
  0
LINE
  5
E9
330
1F
100
AcDbEntity
  8
0
  6
Continuous
 62
     7
100
AcDbLine
 10
-30.3483871489
 20
66.4368334018
 30
0.0
 11
-27.7487885606
 21
66.4309538821
 31
0.0
  0
LINE
  5
EA
330
1F
100
AcDbEntity
  8
0
  6
Continuous
 62
     7
100
AcDbLine
 10
-31.0630364596
 20
-30.5614301455
 30
0.0
 11
-30.5642204918
 21
-31.0625576998
 31
0.0
  0
LINE
  5
EB
330
1F
100
AcDbEntity
  8
0
  6
Continuous
 62
     7
100
AcDbLine
 10
6.4300671106
 20
-31.1462277871
 30
0.0
 11
30.4263617716
 21
-31.2005002762
 31
0.0
  0
LINE
  5
EC
330
1F
100
AcDbEntity
  8
0
  6
Continuous
 62
     7
100
AcDbLine
 10
-6.1122765316
 20
-51.1178359635
 30
0.0
 11
5.8858707989
 21
-51.144972208
 31
0.0
  0
LINE
  5
ED
330
1F
100
AcDbEntity
  8
0
  6
Continuous
 62
     7
100
AcDbLine
 10
-6.6110924994
 20
-50.6167084092
 30
0.0
 11
-6.1122765316
 21
-51.1178359635
 31
0.0
  0
LINE
  5
EE
330
1F
100
AcDbEntity
  8
0
  6
Continuous
 62
     7
100
AcDbLine
 10
-3.9482221316
 20
23.1261776358
 30
0.0
 11
0.0562725761
 21
25.4265188752
 31
0.0
  0
LINE
  5
EF
330
1F
100
AcDbEntity
  8
0
  6
Continuous
 62
     7
100
AcDbLine
 10
4.0505427554
 20
23.1080868061
 30
0.0
 11
4.0420223192
 21
19.2591108435
 31
0.0
  0
LINE
  5
F0
330
1F
100
AcDbEntity
  8
0
  6
Continuous
 62
     7
100
AcDbLine
 10
-3.9482221316
 20
23.1261776358
 30
0.0
 11
-3.9567425679
 21
19.2772016732
 31
0.0
  0
LINE
  5
F1
330
1F
100
AcDbEntity
  8
0
  6
Continuous
 62
     7
100
AcDbLine
 10
-3.9482221316
 20
23.1261776358
 30
0.0
 11
4.0505427554
 21
23.1080868061
 31
0.0
  0
LINE
  5
F2
330
1F
100
AcDbEntity
  8
0
  6
Continuous
 62
     7
100
AcDbLine
 10
0.0562725761
 20
25.4265188752
 30
0.0
 11
4.0505427554
 21
23.1080868061
 31
0.0
  0
LINE
  5
F3
330
1F
100
AcDbEntity
  8
0
  6
Continuous
 62
     7
100
AcDbLine
 10
6.4214337769
 20
-35.0462034312
 30
0.0
 11
5.6527952807
 21
-32.1515238181
 31
0.0
  0
LINE
  5
F4
330
1F
100
AcDbEntity
  8
0
  6
Continuous
 62
     7
100
AcDbLine
 10
-5.7951125875
 20
-32.1256320517
 30
0.0
 11
-6.5765591645
 21
-35.0168058329
 31
0.0
  0
LINE
  5
F5
330
1F
100
AcDbEntity
  8
0
  6
Continuous
 62
     7
100
AcDbLine
 10
-31.0431133818
 20
-21.5614863515
 30
0.0
 11
-29.5466654784
 21
-23.0648690144
 31
0.0
  0
LINE
  5
F6
330
1F
100
AcDbEntity
  8
0
  6
Continuous
 62
     7
100
AcDbLine
 10
-29.5466654784
 20
-23.0648690144
 30
0.0
 11
-31.0497544077
 21
-24.5614676162
 31
0.0
  0
LINE
  5
F7
330
1F
100
AcDbEntity
  8
0
  6
Continuous
 62
     7
100
AcDbLine
 10
-12.9938710162
 20
1.8976625215
 30
0.0
 11
-30.9910920119
 21
1.9383668883
 31
0.0
  0
LINE
  5
F8
330
1F
100
AcDbEntity
  8
0
  6
Continuous
 62
     7
100
AcDbLine
 10
-0.4974614759
 20
68.8693163807
 30
0.0
 11
-0.5130032151
 21
61.8485748963
 31
0.0
  0
LINE
  5
F9
330
1F
100
AcDbEntity
  8
0
  6
Continuous
 62
     7
100
AcDbLine
 10
-2.7127108637
 20
59.3743383818
 30
0.0
 11
-2.716229204
 21
57.7849822915
 31
0.0
  0
LINE
  5
FA
330
1F
100
AcDbEntity
  8
0
  6
Continuous
 62
     7
100
AcDbLine
 10
-23.7094686921
 20
59.4218268097
 30
0.0
 11
-23.7157870207
 21
56.5676191222
 31
0.0
  0
LINE
  5
FB
330
1F
100
AcDbEntity
  8
0
  6
Continuous
 62
     7
100
AcDbLine
 10
-30.1896489227
 20
67.9364725254
 30
0.0
 11
-30.1929694356
 21
66.4364818931
 31
0.0
  0
LINE
  5
FC
330
1F
100
AcDbEntity
  8
0
  6
Continuous
 62
     7
100
AcDbLine
 10
-29.1875896365
 20
68.9342049266
 30
0.0
 11
-30.1896489227
 21
67.9364725254
 31
0.0
  0
LINE
  5
FD
330
1F
100
AcDbEntity
  8
0
  6
Continuous
 62
     7
100
AcDbLine
 10
2.9454520662
 20
-24.4324963145
 30
0.0
 11
2.9363630283
 21
-28.5383292864
 31
0.0
  0
LINE
  5
FE
330
1F
100
AcDbEntity
  8
0
  6
Continuous
 62
     7
100
AcDbLine
 10
2.9363630283
 20
-28.5383292864
 30
0.0
 11
2.9018296935
 21
-44.1382318627
 31
0.0
  0
LINE
  5
FF
330
1F
100
AcDbEntity
  8
0
  6
Continuous
 62
     7
100
AcDbLine
 10
3.049389883
 20
-33.938578232
 30
0.0
 11
3.0383215065
 21
-38.9385470065
 31
0.0
  0
LINE
  5
100
330
1F
100
AcDbEntity
  8
0
  6
Continuous
 62
     7
100
AcDbLine
 10
2.5497173462
 20
-22.5327143316
 30
0.0
 11
2.5373102541
 21
-28.137427243
 31
0.0
  0
LINE
  5
101
330
1F
100
AcDbEntity
  8
0
  6
Continuous
 62
     7
100
AcDbLine
 10
2.5373102541
 20
-28.137427243
 30
0.0
 11
2.5063187997
 21
-42.1373398114
 31
0.0
  0
LINE
  5
102
330
1F
100
AcDbEntity
  8
0
  6
Continuous
 62
     7
100
AcDbLine
 10
-3.0536215991
 20
-24.4189281922
 30
0.0
 11
-3.0627106369
 21
-28.5247611642
 31
0.0
  0
LINE
  5
103
330
1F
100
AcDbEntity
  8
0
  6
Continuous
 62
     7
100
AcDbLine
 10
-3.0627106369
 20
-28.5247611642
 30
0.0
 11
-3.0972439718
 21
-44.1246637404
 31
0.0
  0
LINE
  5
104
330
1F
100
AcDbEntity
  8
0
  6
Continuous
 62
     7
100
AcDbLine
 10
-3.199645185
 20
-33.9244447713
 30
0.0
 11
-3.2107135615
 21
-38.9244135458
 31
0.0
  0
LINE
  5
105
330
1F
100
AcDbEntity
  8
0
  6
Continuous
 62
     7
100
AcDbLine
 10
-2.6494798304
 20
-22.5209552923
 30
0.0
 11
-2.6618869224
 21
-28.1256682037
 31
0.0
  0
LINE
  5
106
330
1F
100
AcDbEntity
  8
0
  6
Continuous
 62
     7
100
AcDbLine
 10
-2.6618869224
 20
-28.1256682037
 30
0.0
 11
-2.6928783768
 21
-42.1255807721
 31
0.0
  0
LINE
  5
107
330
1F
100
AcDbEntity
  8
0
  6
Continuous
 62
     7
100
AcDbLine
 10
4.9015209152
 20
-44.1427545701
 30
0.0
 11
4.889345701
 21
-49.642720222
 31
0.0
  0
LINE
  5
108
330
1F
100
AcDbEntity
  8
0
  6
Continuous
 62
     7
100
AcDbLine
 10
4.3883160579
 20
-50.1415864226
 30
0.0
 11
4.889345701
 21
-49.642720222
 31
0.0
  0
LINE
  5
109
330
1F
100
AcDbEntity
  8
0
  6
Continuous
 62
     7
100
AcDbLine
 10
-5.0969351935
 20
-44.120141033
 30
0.0
 11
-5.1091104078
 21
-49.6201066849
 31
0.0
  0
LINE
  5
10A
330
1F
100
AcDbEntity
  8
0
  6
Continuous
 62
     7
100
AcDbLine
 10
-3.656124782
 20
19.5765213936
 30
0.0
 11
3.7427327385
 21
19.5597873761
 31
0.0
  0
LINE
  5
10B
330
1F
100
AcDbEntity
  8
0
  6
Continuous
 62
     7
100
AcDbLine
 10
-3.7856247878
 20
-38.9231132674
 30
0.0
 11
-3.0857328602
 21
-38.924696215
 31
0.0
  0
LINE
  5
10C
330
1F
100
AcDbEntity
  8
0
  6
Continuous
 62
     7
100
AcDbLine
 10
-3.199645185
 20
-33.9244447713
 30
0.0
 11
-3.0746644836
 21
-33.9247274406
 31
0.0
  0
LINE
  5
10D
330
1F
100
AcDbEntity
  8
0
  6
Continuous
 62
     7
100
AcDbLine
 10
2.9133408051
 20
-38.9382643373
 30
0.0
 11
3.6132327327
 21
-38.9398472849
 31
0.0
  0
LINE
  5
10E
330
1F
100
AcDbEntity
  8
0
  6
Continuous
 62
     7
100
AcDbLine
 10
2.9244091817
 20
-33.9382955628
 30
0.0
 11
3.049389883
 21
-33.938578232
 31
0.0
  0
LINE
  5
10F
330
1F
100
AcDbEntity
  8
0
  6
Continuous
 62
     7
100
AcDbLine
 10
-3.0928166212
 20
-42.1246762306
 30
0.0
 11
2.9062570441
 21
-42.1382443529
 31
0.0
  0
LINE
  5
110
330
1F
100
AcDbEntity
  8
0
  6
Continuous
 62
     7
100
AcDbLine
 10
-4.61029444
 20
-50.1212342392
 30
0.0
 11
4.3883160579
 21
-50.1415864226
 31
0.0
  0
LINE
  5
111
330
1F
100
AcDbEntity
  8
0
  6
Continuous
 62
     7
100
AcDbLine
 10
-5.1091104078
 20
-49.6201066849
 30
0.0
 11
-4.61029444
 21
-50.1212342392
 31
0.0
  0
LINE
  5
112
330
1F
100
AcDbEntity
  8
0
  6
Continuous
 62
     7
100
AcDbLine
 10
-5.1091104078
 20
-49.6201066849
 30
0.0
 11
4.889345701
 21
-49.642720222
 31
0.0
  0
LINE
  5
113
330
1F
100
AcDbEntity
  8
0
  6
Continuous
 62
     7
100
AcDbLine
 10
4.0420223192
 20
19.2591108435
 30
0.0
 11
4.0360453958
 21
16.5591277053
 31
0.0
  0
LINE
  5
114
330
1F
100
AcDbEntity
  8
0
  6
Continuous
 62
     7
100
AcDbLine
 10
4.0271906946
 20
12.5591526858
 30
0.0
 11
3.9138505186
 21
-38.6405275645
 31
0.0
  0
LINE
  5
115
330
1F
100
AcDbEntity
  8
0
  6
Continuous
 62
     7
100
AcDbLine
 10
3.6132327327
 20
-38.9398472849
 30
0.0
 11
3.9138505186
 21
-38.6405275645
 31
0.0
  0
LINE
  5
116
330
1F
100
AcDbEntity
  8
0
  6
Continuous
 62
     7
100
AcDbLine
 10
3.7427327385
 20
19.5597873761
 30
0.0
 11
4.0420223192
 21
19.2591108435
 31
0.0
  0
LINE
  5
117
330
1F
100
AcDbEntity
  8
0
  6
Continuous
 62
     7
100
AcDbLine
 10
-3.9567425679
 20
19.2772016732
 30
0.0
 11
-3.9627194912
 21
16.577218535
 31
0.0
  0
LINE
  5
118
330
1F
100
AcDbEntity
  8
0
  6
Continuous
 62
     7
100
AcDbLine
 10
-3.9715741924
 20
12.5772435155
 30
0.0
 11
-4.0849143684
 21
-38.6224367348
 31
0.0
  0
LINE
  5
119
330
1F
100
AcDbEntity
  8
0
  6
Continuous
 62
     7
100
AcDbLine
 10
-3.7856247878
 20
-38.9231132674
 30
0.0
 11
-4.0849143684
 21
-38.6224367348
 31
0.0
  0
LINE
  5
11A
330
1F
100
AcDbEntity
  8
0
  6
Continuous
 62
     7
100
AcDbLine
 10
-3.656124782
 20
19.5765213936
 30
0.0
 11
-3.9567425679
 21
19.2772016732
 31
0.0
  0
LINE
  5
11B
330
1F
100
AcDbEntity
  8
0
  6
Continuous
 62
     7
100
AcDbLine
 10
-11.4817989925
 20
7.4522357806
 30
0.0
 11
-3.9829569109
 21
7.4352756278
 31
0.0
  0
LINE
  5
11C
330
1F
100
AcDbEntity
  8
0
  6
Continuous
 62
     7
100
AcDbLine
 10
4.0158079761
 20
7.4171847981
 30
0.0
 11
11.5146500577
 21
7.4002246453
 31
0.0
  0
LINE
  5
11D
330
1F
100
AcDbEntity
  8
0
  6
Continuous
 62
     7
100
AcDbLine
 10
-11.4596622394
 20
17.4521733295
 30
0.0
 11
-3.9608201578
 21
17.4352131767
 31
0.0
  0
LINE
  5
11E
330
1F
100
AcDbEntity
  8
0
  6
Continuous
 62
     7
100
AcDbLine
 10
4.0379447292
 20
17.417122347
 30
0.0
 11
11.5367868108
 21
17.4001621942
 31
0.0
  0
LINE
  5
11F
330
1F
100
AcDbEntity
  8
0
  6
Continuous
 62
     7
100
AcDbLine
 10
3.9138505186
 20
-38.6405275645
 30
0.0
 11
3.9016753043
 21
-44.1404932164
 31
0.0
  0
LINE
  5
120
330
1F
100
AcDbEntity
  8
0
  6
Continuous
 62
     7
100
AcDbLine
 10
-4.0849143684
 20
-38.6224367348
 30
0.0
 11
-4.0970895827
 21
-44.1224023867
 31
0.0
  0
LINE
  5
121
330
1F
100
AcDbEntity
  8
0
  6
Continuous
 62
     7
100
AcDbLine
 10
-2.6494798304
 20
-22.5209552923
 30
0.0
 11
2.5497173462
 21
-22.5327143316
 31
0.0
  0
LINE
  5
122
330
1F
100
AcDbEntity
  8
0
  6
Continuous
 62
     7
100
AcDbLine
 10
2.5497173462
 20
-22.5327143316
 30
0.0
 11
-0.0465582704
 21
-21.0257334867
 31
0.0
  0
LINE
  5
123
330
1F
100
AcDbEntity
  8
0
  6
Continuous
 62
     7
100
AcDbLine
 10
-0.0465582704
 20
-21.0257334867
 30
0.0
 11
-2.6494798304
 21
-22.5209552923
 31
0.0
  0
LINE
  5
124
330
1F
100
AcDbEntity
  8
0
  6
Continuous
 62
     7
100
AcDbLine
 10
2.9454520662
 20
-24.4324963145
 30
0.0
 11
-3.0536215991
 21
-24.4189281922
 31
0.0
  0
LINE
  5
125
330
1F
100
AcDbEntity
  8
0
  6
Continuous
 62
     7
100
AcDbLine
 10
-3.0536215991
 20
-24.4189281922
 30
0.0
 11
-2.6527978846
 21
-24.0198352317
 31
0.0
  0
LINE
  5
126
330
1F
100
AcDbEntity
  8
0
  6
Continuous
 62
     7
100
AcDbLine
 10
-2.6527978846
 20
-24.0198352317
 30
0.0
 11
2.546399292
 21
-24.031594271
 31
0.0
  0
LINE
  5
127
330
1F
100
AcDbEntity
  8
0
  6
Continuous
 62
     7
100
AcDbLine
 10
2.546399292
 20
-24.031594271
 30
0.0
 11
2.9454520662
 21
-24.4324963145
 31
0.0
  0
LINE
  5
128
330
1F
100
AcDbEntity
  8
0
  6
Continuous
 62
     7
100
AcDbLine
 10
2.9363630283
 20
-28.5383292864
 30
0.0
 11
-3.0627106369
 21
-28.5247611642
 31
0.0
  0
LINE
  5
129
330
1F
100
AcDbEntity
  8
0
  6
Continuous
 62
     7
100
AcDbLine
 10
-3.0627106369
 20
-28.5247611642
 30
0.0
 11
-2.6618869224
 21
-28.1256682037
 31
0.0
  0
LINE
  5
12A
330
1F
100
AcDbEntity
  8
0
  6
Continuous
 62
     7
100
AcDbLine
 10
-2.6618869224
 20
-28.1256682037
 30
0.0
 11
2.5373102541
 21
-28.137427243
 31
0.0
  0
LINE
  5
12B
330
1F
100
AcDbEntity
  8
0
  6
Continuous
 62
     7
100
AcDbLine
 10
2.5373102541
 20
-28.137427243
 30
0.0
 11
2.9363630283
 21
-28.5383292864
 31
0.0
  0
LINE
  5
12C
330
1F
100
AcDbEntity
  8
0
  6
Continuous
 62
     7
100
AcDbLine
 10
-5.3468965963
 20
-44.1195756946
 30
0.0
 11
5.1514823179
 21
-44.1433199085
 31
0.0
  0
LINE
  5
12D
330
1F
100
AcDbEntity
  8
0
  6
Continuous
 62
     7
100
AcDbLine
 10
5.1514823179
 20
-44.1433199085
 30
0.0
 11
5.1359865908
 21
-51.1432761927
 31
0.0
  0
LINE
  5
12E
330
1F
100
AcDbEntity
  8
0
  6
Continuous
 62
     7
100
AcDbLine
 10
-5.3468965963
 20
-44.1195756946
 30
0.0
 11
-5.3623923234
 21
-51.1195319788
 31
0.0
  0
LINE
  5
12F
330
1F
100
AcDbEntity
  8
0
  6
Continuous
 62
     7
100
AcDbLine
 10
-22.4681645748
 20
12.8690769978
 30
0.0
 11
-22.4604167112
 21
16.3690551399
 31
0.0
  0
LINE
  5
130
330
1F
100
AcDbEntity
  8
0
  6
Continuous
 62
     7
100
AcDbLine
 10
-22.2099018897
 20
16.6184882402
 30
0.0
 11
-22.4604167112
 21
16.3690551399
 31
0.0
  0
LINE
  5
131
330
1F
100
AcDbEntity
  8
0
  6
Continuous
 62
     7
100
AcDbLine
 10
-22.2187565909
 20
12.6185132207
 30
0.0
 11
-19.7437354355
 21
12.6129154582
 31
0.0
  0
LINE
  5
132
330
1F
100
AcDbEntity
  8
0
  6
Continuous
 62
     7
100
AcDbLine
 10
-18.1947812756
 20
12.6094121841
 30
0.0
 11
0.0278082511
 21
12.5681981006
 31
0.0
  0
LINE
  5
133
330
1F
100
AcDbEntity
  8
0
  6
Continuous
 62
     7
100
AcDbLine
 10
-22.4681645748
 20
12.8690769978
 30
0.0
 11
-22.2187565909
 21
12.6185132207
 31
0.0
  0
LINE
  5
134
330
1F
100
AcDbEntity
  8
0
  6
Continuous
 62
     7
100
AcDbLine
 10
-22.2099018897
 20
16.6184882402
 30
0.0
 11
-19.7348807343
 21
16.6128904777
 31
0.0
  0
LINE
  5
135
330
1F
100
AcDbEntity
  8
0
  6
Continuous
 62
     7
100
AcDbLine
 10
-18.1859265744
 20
16.6093872036
 30
0.0
 11
0.0366629523
 21
16.5681731202
 31
0.0
  0
LINE
  5
136
330
1F
100
AcDbEntity
  8
0
  6
Continuous
 62
     7
100
AcDbLine
 10
-19.7348807343
 20
16.6128904777
 30
0.0
 11
-19.7437354355
 21
12.6129154582
 31
0.0
  0
LINE
  5
137
330
1F
100
AcDbEntity
  8
0
  6
Continuous
 62
     7
100
AcDbLine
 10
-18.1859265744
 20
16.6093872036
 30
0.0
 11
-18.1947812756
 21
12.6094121841
 31
0.0
  0
LINE
  5
138
330
1F
100
AcDbEntity
  8
0
  6
Continuous
 62
     7
100
AcDbLine
 10
30.6421951146
 20
66.2988908254
 30
0.0
 11
31.1410110824
 21
65.7977632711
 31
0.0
  0
LINE
  5
139
330
1F
100
AcDbEntity
  8
0
  6
Continuous
 62
     7
100
AcDbLine
 10
29.4924659788
 20
68.8014880751
 30
0.0
 11
0.8023378182
 21
68.8663766209
 31
0.0
  0
LINE
  5
13A
330
1F
100
AcDbEntity
  8
0
  6
Continuous
 62
     7
100
AcDbLine
 10
30.6421951146
 20
66.2988908254
 30
0.0
 11
28.0425965263
 21
66.3047703451
 31
0.0
  0
LINE
  5
13B
330
1F
100
AcDbEntity
  8
0
  6
Continuous
 62
     7
100
AcDbLine
 10
0.8023378182
 20
68.8663766209
 30
0.0
 11
0.7867960791
 21
61.8456351364
 31
0.0
  0
LINE
  5
13C
330
1F
100
AcDbEntity
  8
0
  6
Continuous
 62
     7
100
AcDbLine
 10
30.4900979143
 20
67.7992329665
 30
0.0
 11
30.4867774014
 21
66.2992423341
 31
0.0
  0
LINE
  5
13D
330
1F
100
AcDbEntity
  8
0
  6
Continuous
 62
     7
100
AcDbLine
 10
29.4924659788
 20
68.8014880751
 30
0.0
 11
30.4900979143
 21
67.7992329665
 31
0.0
  0
LINE
  5
13E
330
1F
100
AcDbEntity
  8
0
  6
Continuous
 62
     7
100
AcDbLine
 10
-26.6355307458
 20
60.9284428351
 30
0.0
 11
-30.8604851685
 21
60.9379984267
 31
0.0
  0
LINE
  5
13F
330
1F
100
AcDbEntity
  8
0
  6
Continuous
 62
     7
100
AcDbLine
 10
-23.8392445532
 20
48.422133947
 30
0.0
 11
-13.9407730056
 21
48.3997465452
 31
0.0
  0
LINE
  5
140
330
1F
100
AcDbEntity
  8
0
  6
Continuous
 62
     7
100
AcDbLine
 10
-23.8427864337
 20
46.8221439391
 30
0.0
 11
-13.9443148861
 21
46.7997565374
 31
0.0
  0
LINE
  5
141
330
1F
100
AcDbEntity
  8
0
  6
Continuous
 62
     7
100
AcDbLine
 10
-23.8427864337
 20
46.8221439391
 30
0.0
 11
-13.9443148861
 21
46.7997565374
 31
0.0
  0
LINE
  5
142
330
1F
100
AcDbEntity
  8
0
  6
Continuous
 62
     7
100
AcDbLine
 10
-23.8463283142
 20
45.2221539313
 30
0.0
 11
-13.9478567666
 21
45.1997665296
 31
0.0
  0
LINE
  5
143
330
1F
100
AcDbEntity
  8
0
  6
Continuous
 62
     7
100
AcDbLine
 10
-23.8463283142
 20
45.2221539313
 30
0.0
 11
-13.9478567666
 21
45.1997665296
 31
0.0
  0
LINE
  5
144
330
1F
100
AcDbEntity
  8
0
  6
Continuous
 62
     7
100
AcDbLine
 10
-23.8498701947
 20
43.6221639235
 30
0.0
 11
-13.9513986471
 21
43.5997765218
 31
0.0
  0
LINE
  5
145
330
1F
100
AcDbEntity
  8
0
  6
Continuous
 62
     7
100
AcDbLine
 10
-23.8498701947
 20
43.6221639235
 30
0.0
 11
-13.9513986471
 21
43.5997765218
 31
0.0
  0
LINE
  5
146
330
1F
100
AcDbEntity
  8
0
  6
Continuous
 62
     7
100
AcDbLine
 10
-23.8534120752
 20
42.0221739157
 30
0.0
 11
-13.9549405276
 21
41.999786514
 31
0.0
  0
LINE
  5
147
330
1F
100
AcDbEntity
  8
0
  6
Continuous
 62
     7
100
AcDbLine
 10
-23.8534120752
 20
42.0221739157
 30
0.0
 11
-13.9549405276
 21
41.999786514
 31
0.0
  0
LINE
  5
148
330
1F
100
AcDbEntity
  8
0
  6
Continuous
 62
     7
100
AcDbLine
 10
-23.8569539557
 20
40.4221839079
 30
0.0
 11
-13.9584824081
 21
40.3997965061
 31
0.0
  0
LINE
  5
149
330
1F
100
AcDbEntity
  8
0
  6
Continuous
 62
     7
100
AcDbLine
 10
-23.8569539557
 20
40.4221839079
 30
0.0
 11
-13.9584824081
 21
40.3997965061
 31
0.0
  0
LINE
  5
14A
330
1F
100
AcDbEntity
  8
0
  6
Continuous
 62
     7
100
AcDbLine
 10
-23.8604958362
 20
38.8221939
 30
0.0
 11
-13.9620242886
 21
38.7998064983
 31
0.0
  0
LINE
  5
14B
330
1F
100
AcDbEntity
  8
0
  6
Continuous
 62
     7
100
AcDbLine
 10
-23.8604958362
 20
38.8221939
 30
0.0
 11
-13.9620242886
 21
38.7998064983
 31
0.0
  0
LINE
  5
14C
330
1F
100
AcDbEntity
  8
0
  6
Continuous
 62
     7
100
AcDbLine
 10
-23.8640377167
 20
37.2222038922
 30
0.0
 11
-13.9655661691
 21
37.1998164905
 31
0.0
  0
LINE
  5
14D
330
1F
100
AcDbEntity
  8
0
  6
Continuous
 62
     7
100
AcDbLine
 10
-23.8640377167
 20
37.2222038922
 30
0.0
 11
-13.9655661691
 21
37.1998164905
 31
0.0
  0
LINE
  5
14E
330
1F
100
AcDbEntity
  8
0
  6
Continuous
 62
     7
100
AcDbLine
 10
-23.8675795972
 20
35.6222138844
 30
0.0
 11
-13.9691080496
 21
35.5998264827
 31
0.0
  0
LINE
  5
14F
330
1F
100
AcDbEntity
  8
0
  6
Continuous
 62
     7
100
AcDbLine
 10
-23.8675795972
 20
35.6222138844
 30
0.0
 11
-13.9691080496
 21
35.5998264827
 31
0.0
  0
LINE
  5
150
330
1F
100
AcDbEntity
  8
0
  6
Continuous
 62
     7
100
AcDbLine
 10
-23.8711214777
 20
34.0222238766
 30
0.0
 11
-13.9726499301
 21
33.9998364748
 31
0.0
  0
LINE
  5
151
330
1F
100
AcDbEntity
  8
0
  6
Continuous
 62
     7
100
AcDbLine
 10
-23.8711214777
 20
34.0222238766
 30
0.0
 11
-13.9726499301
 21
33.9998364748
 31
0.0
  0
LINE
  5
152
330
1F
100
AcDbEntity
  8
0
  6
Continuous
 62
     7
100
AcDbLine
 10
-23.8746633582
 20
32.4222338688
 30
0.0
 11
-13.9761918106
 21
32.399846467
 31
0.0
  0
LINE
  5
153
330
1F
100
AcDbEntity
  8
0
  6
Continuous
 62
     7
100
AcDbLine
 10
-23.8746633582
 20
32.4222338688
 30
0.0
 11
-13.9761918106
 21
32.399846467
 31
0.0
  0
LINE
  5
154
330
1F
100
AcDbEntity
  8
0
  6
Continuous
 62
     7
100
AcDbLine
 10
-23.8782052387
 20
30.8222438609
 30
0.0
 11
-13.9797336911
 21
30.7998564592
 31
0.0
  0
LINE
  5
155
330
1F
100
AcDbEntity
  8
0
  6
Continuous
 62
     7
100
AcDbLine
 10
-23.8782052387
 20
30.8222438609
 30
0.0
 11
-13.9797336911
 21
30.7998564592
 31
0.0
  0
LINE
  5
156
330
1F
100
AcDbEntity
  8
0
  6
Continuous
 62
     7
100
AcDbLine
 10
-23.8817471192
 20
29.2222538531
 30
0.0
 11
-13.9832755716
 21
29.1998664514
 31
0.0
  0
LINE
  5
157
330
1F
100
AcDbEntity
  8
0
  6
Continuous
 62
     7
100
AcDbLine
 10
-23.8817471192
 20
29.2222538531
 30
0.0
 11
-13.9832755716
 21
29.1998664514
 31
0.0
  0
LINE
  5
158
330
1F
100
AcDbEntity
  8
0
  6
Continuous
 62
     7
100
AcDbLine
 10
-23.8852889997
 20
27.6222638453
 30
0.0
 11
-13.9868174521
 21
27.5998764436
 31
0.0
  0
LINE
  5
159
330
1F
100
AcDbEntity
  8
0
  6
Continuous
 62
     7
100
AcDbLine
 10
-23.8852889997
 20
27.6222638453
 30
0.0
 11
-13.9868174521
 21
27.5998764436
 31
0.0
  0
LINE
  5
15A
330
1F
100
AcDbEntity
  8
0
  6
Continuous
 62
     7
100
AcDbLine
 10
-23.8888308802
 20
26.0222738375
 30
0.0
 11
-13.9903593326
 21
25.9998864357
 31
0.0
  0
LINE
  5
15B
330
1F
100
AcDbEntity
  8
0
  6
Continuous
 62
     7
100
AcDbLine
 10
-23.8888308802
 20
26.0222738375
 30
0.0
 11
-13.9903593326
 21
25.9998864357
 31
0.0
  0
LINE
  5
15C
330
1F
100
AcDbEntity
  8
0
  6
Continuous
 62
     7
100
AcDbLine
 10
-23.8923727607
 20
24.4222838297
 30
0.0
 11
-13.9939012131
 21
24.3998964279
 31
0.0
  0
LINE
  5
15D
330
1F
100
AcDbEntity
  8
0
  6
Continuous
 62
     7
100
AcDbLine
 10
-23.8923727607
 20
24.4222838297
 30
0.0
 11
-13.9939012131
 21
24.3998964279
 31
0.0
  0
LINE
  5
15E
330
1F
100
AcDbEntity
  8
0
  6
Continuous
 62
     7
100
AcDbLine
 10
-23.8959146412
 20
22.8222938218
 30
0.0
 11
-13.9974430936
 21
22.7999064201
 31
0.0
  0
LINE
  5
15F
330
1F
100
AcDbEntity
  8
0
  6
Continuous
 62
     7
100
AcDbLine
 10
-23.8959146412
 20
22.8222938218
 30
0.0
 11
-13.9974430936
 21
22.7999064201
 31
0.0
  0
LINE
  5
160
330
1F
100
AcDbEntity
  8
0
  6
Continuous
 62
     7
100
AcDbLine
 10
-23.8994565217
 20
21.222303814
 30
0.0
 11
-14.0009849741
 21
21.1999164123
 31
0.0
  0
LINE
  5
161
330
1F
100
AcDbEntity
  8
0
  6
Continuous
 62
     7
100
AcDbLine
 10
-23.8994565217
 20
21.222303814
 30
0.0
 11
-14.0009849741
 21
21.1999164123
 31
0.0
  0
LINE
  5
162
330
1F
100
AcDbEntity
  8
0
  6
Continuous
 62
     7
100
AcDbLine
 10
-23.8994565217
 20
21.222303814
 30
0.0
 11
-14.0009849741
 21
21.1999164123
 31
0.0
  0
LINE
  5
163
330
1F
100
AcDbEntity
  8
0
  6
Continuous
 62
     7
100
AcDbLine
 10
-18.169824602
 20
12.4093559872
 30
0.0
 11
-18.1547716098
 21
19.2093135204
 31
0.0
  0
LINE
  5
164
330
1F
100
AcDbEntity
  8
0
  6
Continuous
 62
     7
100
AcDbLine
 10
-19.760280143
 20
16.6129479236
 30
0.0
 11
-18.1605271656
 21
16.6093297577
 31
0.0
  0
LINE
  5
165
330
1F
100
AcDbEntity
  8
0
  6
Continuous
 62
     7
100
AcDbLine
 10
-22.6531913886
 20
19.6194871141
 30
0.0
 11
-20.1535773615
 21
19.6138337298
 31
0.0
  0
LINE
  5
166
330
1F
100
AcDbEntity
  8
0
  6
Continuous
 62
     7
100
AcDbLine
 10
-19.7695775794
 20
12.4129741531
 30
0.0
 11
-19.7545245872
 21
19.2129316863
 31
0.0
  0
LINE
  5
167
330
1F
100
AcDbEntity
  8
0
  6
Continuous
 62
     7
100
AcDbLine
 10
-19.6704049254
 20
57.2126943721
 30
0.0
 11
-19.6854579175
 21
50.4127368388
 31
0.0
  0
LINE
  5
168
330
1F
100
AcDbEntity
  8
0
  6
Continuous
 62
     7
100
AcDbLine
 10
-18.0799493843
 20
53.0091024356
 30
0.0
 11
-19.6797023617
 21
53.0127206016
 31
0.0
  0
LINE
  5
169
330
1F
100
AcDbEntity
  8
0
  6
Continuous
 62
     7
100
AcDbLine
 10
-15.1870381387
 20
50.0025632452
 30
0.0
 11
-17.6866521659
 21
50.0082166295
 31
0.0
  0
LINE
  5
16A
330
1F
100
AcDbEntity
  8
0
  6
Continuous
 62
     7
100
AcDbLine
 10
-18.070651948
 20
57.2090762062
 30
0.0
 11
-18.0857049401
 21
50.4091186729
 31
0.0
  0
LINE
  5
16B
330
1F
100
AcDbEntity
  8
0
  6
Continuous
 62
     7
100
AcDbLine
 10
-2.7127108637
 20
59.3743383818
 30
0.0
 11
-23.7094686921
 21
59.4218268097
 31
0.0
  0
LINE
  5
16C
330
1F
100
AcDbEntity
  8
0
  6
Continuous
 62
     7
100
AcDbLine
 10
-16.8659671292
 20
59.4063488425
 30
0.0
 11
-16.8748218305
 21
55.4063738229
 31
0.0
  0
LINE
  5
16D
330
1F
100
AcDbEntity
  8
0
  6
Continuous
 62
     7
100
AcDbLine
 10
-20.8653495727
 20
59.4153942573
 30
0.0
 11
-20.874204274
 21
55.4154192377
 31
0.0
  0
LINE
  5
16E
330
1F
100
AcDbEntity
  8
0
  6
Continuous
 62
     7
100
AcDbLine
 10
-16.7549141916
 20
64.4060914815
 30
0.0
 11
-16.7658547615
 21
59.4638573734
 31
0.0
  0
LINE
  5
16F
330
1F
100
AcDbEntity
  8
0
  6
Continuous
 62
     7
100
AcDbLine
 10
-20.9542657572
 20
64.4155891671
 30
0.0
 11
-20.9652063272
 21
59.473355059
 31
0.0
  0
LINE
  5
170
330
1F
100
AcDbEntity
  8
0
  6
Continuous
 62
     7
100
AcDbLine
 10
-16.355529366
 20
64.1551885013
 30
0.0
 11
-16.3743456062
 21
55.6552415848
 31
0.0
  0
LINE
  5
171
330
1F
100
AcDbEntity
  8
0
  6
Continuous
 62
     7
100
AcDbLine
 10
-16.6049373499
 20
64.4057522785
 30
0.0
 11
-16.355529366
 21
64.1551885013
 31
0.0
  0
LINE
  5
172
330
1F
100
AcDbEntity
  8
0
  6
Continuous
 62
     7
100
AcDbLine
 10
-16.6248604277
 20
55.4058084845
 30
0.0
 11
-16.3743456062
 21
55.6552415848
 31
0.0
  0
LINE
  5
173
330
1F
100
AcDbEntity
  8
0
  6
Continuous
 62
     7
100
AcDbLine
 10
-21.3547574204
 20
64.1664952699
 30
0.0
 11
-21.3735736606
 21
55.6665483533
 31
0.0
  0
LINE
  5
174
330
1F
100
AcDbEntity
  8
0
  6
Continuous
 62
     7
100
AcDbLine
 10
-21.1241656767
 20
55.4159845762
 30
0.0
 11
-16.6248604277
 21
55.4058084845
 31
0.0
  0
LINE
  5
175
330
1F
100
AcDbEntity
  8
0
  6
Continuous
 62
     7
100
AcDbLine
 10
-21.3735736606
 20
55.6665483533
 30
0.0
 11
-21.1241656767
 21
55.4159845762
 31
0.0
  0
LINE
  5
176
330
1F
100
AcDbEntity
  8
0
  6
Continuous
 62
     7
100
AcDbLine
 10
-21.1042425989
 20
64.4159283702
 30
0.0
 11
-16.6049373499
 21
64.4057522785
 31
0.0
  0
LINE
  5
177
330
1F
100
AcDbEntity
  8
0
  6
Continuous
 62
     7
100
AcDbLine
 10
-21.3547574204
 20
64.1664952699
 30
0.0
 11
-21.1042425989
 21
64.4159283702
 31
0.0
  0
LINE
  5
178
330
1F
100
AcDbEntity
  8
0
  6
Continuous
 62
     7
100
AcDbLine
 10
-20.8653495727
 20
59.4153942573
 30
0.0
 11
-16.8659671292
 21
59.4063488425
 31
0.0
  0
LINE
  5
179
330
1F
100
AcDbEntity
  8
0
  6
Continuous
 62
     7
100
AcDbLine
 10
-20.8653495727
 20
59.4153942573
 30
0.0
 11
-21.3646333451
 21
59.7051982659
 31
0.0
  0
LINE
  5
17A
330
1F
100
AcDbEntity
  8
0
  6
Continuous
 62
     7
100
AcDbLine
 10
-16.8659671292
 20
59.4063488425
 30
0.0
 11
-16.3654052908
 21
59.6938914974
 31
0.0
  0
LINE
  5
17B
330
1F
100
AcDbEntity
  8
0
  6
Continuous
 62
     7
100
AcDbLine
 10
-21.3547574204
 20
64.1664952699
 30
0.0
 11
-16.355529366
 21
64.1551885013
 31
0.0
  0
LINE
  5
17C
330
1F
100
AcDbEntity
  8
0
  6
Continuous
 62
     7
100
AcDbLine
 10
11.614595834
 20
52.5491909635
 30
0.0
 11
11.5348874774
 21
16.5421675525
 31
0.0
  0
LINE
  5
17D
330
1F
100
AcDbEntity
  8
0
  6
Continuous
 62
     7
100
AcDbLine
 10
11.5260327761
 20
12.5421925329
 30
0.0
 11
11.5056669633
 21
3.342249988
 31
0.0
  0
LINE
  5
17E
330
1F
100
AcDbEntity
  8
0
  6
Continuous
 62
     7
100
AcDbLine
 10
13.0021148666
 20
1.8388673251
 30
0.0
 11
30.9993358624
 21
1.7981629583
 31
0.0
  0
LINE
  5
17F
330
1F
100
AcDbEntity
  8
0
  6
Continuous
 62
     7
100
AcDbLine
 10
2.9755273751
 20
59.3614732769
 30
0.0
 11
2.9720090348
 21
57.7721171866
 31
0.0
  0
LINE
  5
180
330
1F
100
AcDbEntity
  8
0
  6
Continuous
 62
     7
100
AcDbLine
 10
23.9722852035
 20
59.313984849
 30
0.0
 11
23.965966875
 21
56.4597771615
 31
0.0
  0
LINE
  5
181
330
1F
100
AcDbEntity
  8
0
  6
Continuous
 62
     7
100
AcDbLine
 10
22.5248879146
 20
12.7673160807
 30
0.0
 11
22.5326357782
 21
16.2672942228
 31
0.0
  0
LINE
  5
182
330
1F
100
AcDbEntity
  8
0
  6
Continuous
 62
     7
100
AcDbLine
 10
22.2832277943
 20
16.5178579999
 30
0.0
 11
22.5326357782
 21
16.2672942228
 31
0.0
  0
LINE
  5
183
330
1F
100
AcDbEntity
  8
0
  6
Continuous
 62
     7
100
AcDbLine
 10
22.2743730931
 20
12.5178829804
 30
0.0
 11
19.7993519376
 21
12.5234807429
 31
0.0
  0
LINE
  5
184
330
1F
100
AcDbEntity
  8
0
  6
Continuous
 62
     7
100
AcDbLine
 10
18.2503977778
 20
12.5269840172
 30
0.0
 11
0.0278082511
 21
12.5681981006
 31
0.0
  0
LINE
  5
185
330
1F
100
AcDbEntity
  8
0
  6
Continuous
 62
     7
100
AcDbLine
 10
22.5248879146
 20
12.7673160807
 30
0.0
 11
22.2743730931
 21
12.5178829804
 31
0.0
  0
LINE
  5
186
330
1F
100
AcDbEntity
  8
0
  6
Continuous
 62
     7
100
AcDbLine
 10
22.2832277943
 20
16.5178579999
 30
0.0
 11
19.8082066389
 21
16.5234557624
 31
0.0
  0
LINE
  5
187
330
1F
100
AcDbEntity
  8
0
  6
Continuous
 62
     7
100
AcDbLine
 10
18.259252479
 20
16.5269590367
 30
0.0
 11
0.0366629523
 21
16.5681731202
 31
0.0
  0
LINE
  5
188
330
1F
100
AcDbEntity
  8
0
  6
Continuous
 62
     7
100
AcDbLine
 10
19.8082066389
 20
16.5234557624
 30
0.0
 11
19.7993519376
 21
12.5234807429
 31
0.0
  0
LINE
  5
189
330
1F
100
AcDbEntity
  8
0
  6
Continuous
 62
     7
100
AcDbLine
 10
18.259252479
 20
16.5269590367
 30
0.0
 11
18.2503977778
 21
12.5269840172
 31
0.0
  0
LINE
  5
18A
330
1F
100
AcDbEntity
  8
0
  6
Continuous
 62
     7
100
AcDbLine
 10
26.9049882832
 20
60.8073500883
 30
0.0
 11
31.1299427058
 21
60.7977944967
 31
0.0
  0
LINE
  5
18B
330
1F
100
AcDbEntity
  8
0
  6
Continuous
 62
     7
100
AcDbLine
 10
24.0533602074
 20
48.313815105
 30
0.0
 11
14.1548886597
 21
48.3362025067
 31
0.0
  0
LINE
  5
18C
330
1F
100
AcDbEntity
  8
0
  6
Continuous
 62
     7
100
AcDbLine
 10
24.0498183269
 20
46.7138250972
 30
0.0
 11
14.1513467792
 21
46.7362124989
 31
0.0
  0
LINE
  5
18D
330
1F
100
AcDbEntity
  8
0
  6
Continuous
 62
     7
100
AcDbLine
 10
24.0498183269
 20
46.7138250972
 30
0.0
 11
14.1513467792
 21
46.7362124989
 31
0.0
  0
LINE
  5
18E
330
1F
100
AcDbEntity
  8
0
  6
Continuous
 62
     7
100
AcDbLine
 10
24.0462764464
 20
45.1138350894
 30
0.0
 11
14.1478048987
 21
45.1362224911
 31
0.0
  0
LINE
  5
18F
330
1F
100
AcDbEntity
  8
0
  6
Continuous
 62
     7
100
AcDbLine
 10
24.0462764464
 20
45.1138350894
 30
0.0
 11
14.1478048987
 21
45.1362224911
 31
0.0
  0
LINE
  5
190
330
1F
100
AcDbEntity
  8
0
  6
Continuous
 62
     7
100
AcDbLine
 10
24.0427345659
 20
43.5138450815
 30
0.0
 11
14.1442630182
 21
43.5362324833
 31
0.0
  0
LINE
  5
191
330
1F
100
AcDbEntity
  8
0
  6
Continuous
 62
     7
100
AcDbLine
 10
24.0427345659
 20
43.5138450815
 30
0.0
 11
14.1442630182
 21
43.5362324833
 31
0.0
  0
LINE
  5
192
330
1F
100
AcDbEntity
  8
0
  6
Continuous
 62
     7
100
AcDbLine
 10
24.0391926854
 20
41.9138550737
 30
0.0
 11
14.1407211377
 21
41.9362424755
 31
0.0
  0
LINE
  5
193
330
1F
100
AcDbEntity
  8
0
  6
Continuous
 62
     7
100
AcDbLine
 10
24.0391926854
 20
41.9138550737
 30
0.0
 11
14.1407211377
 21
41.9362424755
 31
0.0
  0
LINE
  5
194
330
1F
100
AcDbEntity
  8
0
  6
Continuous
 62
     7
100
AcDbLine
 10
24.0356508049
 20
40.3138650659
 30
0.0
 11
14.1371792572
 21
40.3362524676
 31
0.0
  0
LINE
  5
195
330
1F
100
AcDbEntity
  8
0
  6
Continuous
 62
     7
100
AcDbLine
 10
24.0356508049
 20
40.3138650659
 30
0.0
 11
14.1371792572
 21
40.3362524676
 31
0.0
  0
LINE
  5
196
330
1F
100
AcDbEntity
  8
0
  6
Continuous
 62
     7
100
AcDbLine
 10
24.0321089244
 20
38.7138750581
 30
0.0
 11
14.1336373767
 21
38.7362624598
 31
0.0
  0
LINE
  5
197
330
1F
100
AcDbEntity
  8
0
  6
Continuous
 62
     7
100
AcDbLine
 10
24.0321089244
 20
38.7138750581
 30
0.0
 11
14.1336373767
 21
38.7362624598
 31
0.0
  0
LINE
  5
198
330
1F
100
AcDbEntity
  8
0
  6
Continuous
 62
     7
100
AcDbLine
 10
24.0285670439
 20
37.1138850503
 30
0.0
 11
14.1300954962
 21
37.136272452
 31
0.0
  0
LINE
  5
199
330
1F
100
AcDbEntity
  8
0
  6
Continuous
 62
     7
100
AcDbLine
 10
24.0285670439
 20
37.1138850503
 30
0.0
 11
14.1300954962
 21
37.136272452
 31
0.0
  0
LINE
  5
19A
330
1F
100
AcDbEntity
  8
0
  6
Continuous
 62
     7
100
AcDbLine
 10
24.0250251634
 20
35.5138950424
 30
0.0
 11
14.1265536157
 21
35.5362824442
 31
0.0
  0
LINE
  5
19B
330
1F
100
AcDbEntity
  8
0
  6
Continuous
 62
     7
100
AcDbLine
 10
24.0250251634
 20
35.5138950424
 30
0.0
 11
14.1265536157
 21
35.5362824442
 31
0.0
  0
LINE
  5
19C
330
1F
100
AcDbEntity
  8
0
  6
Continuous
 62
     7
100
AcDbLine
 10
24.0214832829
 20
33.9139050346
 30
0.0
 11
14.1230117352
 21
33.9362924364
 31
0.0
  0
LINE
  5
19D
330
1F
100
AcDbEntity
  8
0
  6
Continuous
 62
     7
100
AcDbLine
 10
24.0214832829
 20
33.9139050346
 30
0.0
 11
14.1230117352
 21
33.9362924364
 31
0.0
  0
LINE
  5
19E
330
1F
100
AcDbEntity
  8
0
  6
Continuous
 62
     7
100
AcDbLine
 10
24.0179414024
 20
32.3139150268
 30
0.0
 11
14.1194698547
 21
32.3363024285
 31
0.0
  0
LINE
  5
19F
330
1F
100
AcDbEntity
  8
0
  6
Continuous
 62
     7
100
AcDbLine
 10
24.0179414024
 20
32.3139150268
 30
0.0
 11
14.1194698547
 21
32.3363024285
 31
0.0
  0
LINE
  5
1A0
330
1F
100
AcDbEntity
  8
0
  6
Continuous
 62
     7
100
AcDbLine
 10
24.0143995219
 20
30.713925019
 30
0.0
 11
14.1159279742
 21
30.7363124207
 31
0.0
  0
LINE
  5
1A1
330
1F
100
AcDbEntity
  8
0
  6
Continuous
 62
     7
100
AcDbLine
 10
24.0143995219
 20
30.713925019
 30
0.0
 11
14.1159279742
 21
30.7363124207
 31
0.0
  0
LINE
  5
1A2
330
1F
100
AcDbEntity
  8
0
  6
Continuous
 62
     7
100
AcDbLine
 10
24.0108576414
 20
29.1139350112
 30
0.0
 11
14.1123860937
 21
29.1363224129
 31
0.0
  0
LINE
  5
1A3
330
1F
100
AcDbEntity
  8
0
  6
Continuous
 62
     7
100
AcDbLine
 10
24.0108576414
 20
29.1139350112
 30
0.0
 11
14.1123860937
 21
29.1363224129
 31
0.0
  0
LINE
  5
1A4
330
1F
100
AcDbEntity
  8
0
  6
Continuous
 62
     7
100
AcDbLine
 10
24.0073157609
 20
27.5139450033
 30
0.0
 11
14.1088442132
 21
27.5363324051
 31
0.0
  0
LINE
  5
1A5
330
1F
100
AcDbEntity
  8
0
  6
Continuous
 62
     7
100
AcDbLine
 10
24.0073157609
 20
27.5139450033
 30
0.0
 11
14.1088442132
 21
27.5363324051
 31
0.0
  0
LINE
  5
1A6
330
1F
100
AcDbEntity
  8
0
  6
Continuous
 62
     7
100
AcDbLine
 10
24.0037738804
 20
25.9139549955
 30
0.0
 11
14.1053023327
 21
25.9363423972
 31
0.0
  0
LINE
  5
1A7
330
1F
100
AcDbEntity
  8
0
  6
Continuous
 62
     7
100
AcDbLine
 10
24.0037738804
 20
25.9139549955
 30
0.0
 11
14.1053023327
 21
25.9363423972
 31
0.0
  0
LINE
  5
1A8
330
1F
100
AcDbEntity
  8
0
  6
Continuous
 62
     7
100
AcDbLine
 10
24.0002319999
 20
24.3139649877
 30
0.0
 11
14.1017604522
 21
24.3363523894
 31
0.0
  0
LINE
  5
1A9
330
1F
100
AcDbEntity
  8
0
  6
Continuous
 62
     7
100
AcDbLine
 10
24.0002319999
 20
24.3139649877
 30
0.0
 11
14.1017604522
 21
24.3363523894
 31
0.0
  0
LINE
  5
1AA
330
1F
100
AcDbEntity
  8
0
  6
Continuous
 62
     7
100
AcDbLine
 10
23.9966901194
 20
22.7139749799
 30
0.0
 11
14.0982185717
 21
22.7363623816
 31
0.0
  0
LINE
  5
1AB
330
1F
100
AcDbEntity
  8
0
  6
Continuous
 62
     7
100
AcDbLine
 10
23.9966901194
 20
22.7139749799
 30
0.0
 11
14.0982185717
 21
22.7363623816
 31
0.0
  0
LINE
  5
1AC
330
1F
100
AcDbEntity
  8
0
  6
Continuous
 62
     7
100
AcDbLine
 10
23.9931482389
 20
21.1139849721
 30
0.0
 11
14.0946766912
 21
21.1363723738
 31
0.0
  0
LINE
  5
1AD
330
1F
100
AcDbEntity
  8
0
  6
Continuous
 62
     7
100
AcDbLine
 10
23.9931482389
 20
21.1139849721
 30
0.0
 11
14.0946766912
 21
21.1363723738
 31
0.0
  0
LINE
  5
1AE
330
1F
100
AcDbEntity
  8
0
  6
Continuous
 62
     7
100
AcDbLine
 10
23.9931482389
 20
21.1139849721
 30
0.0
 11
14.0946766912
 21
21.1363723738
 31
0.0
  0
LINE
  5
1AF
330
1F
100
AcDbEntity
  8
0
  6
Continuous
 62
     7
100
AcDbLine
 10
18.2245556339
 20
12.3270427128
 30
0.0
 11
18.239608626
 21
19.127000246
 31
0.0
  0
LINE
  5
1B0
330
1F
100
AcDbEntity
  8
0
  6
Continuous
 62
     7
100
AcDbLine
 10
19.8336060473
 20
16.5233983175
 30
0.0
 11
18.2338530699
 21
16.5270164834
 31
0.0
  0
LINE
  5
1B1
330
1F
100
AcDbEntity
  8
0
  6
Continuous
 62
     7
100
AcDbLine
 10
22.7397993451
 20
19.5168216563
 30
0.0
 11
20.2401853179
 21
19.5224750406
 31
0.0
  0
LINE
  5
1B2
330
1F
100
AcDbEntity
  8
0
  6
Continuous
 62
     7
100
AcDbLine
 10
19.8243086113
 20
12.3234245469
 30
0.0
 11
19.8393616034
 21
19.1233820801
 31
0.0
  0
LINE
  5
1B3
330
1F
100
AcDbEntity
  8
0
  6
Continuous
 62
     7
100
AcDbLine
 10
19.923481265
 20
57.1231447659
 30
0.0
 11
19.9084282729
 21
50.3231872327
 31
0.0
  0
LINE
  5
1B4
330
1F
100
AcDbEntity
  8
0
  6
Continuous
 62
     7
100
AcDbLine
 10
18.3144308513
 20
52.9267891613
 30
0.0
 11
19.9141838287
 21
52.9231709954
 31
0.0
  0
LINE
  5
1B5
330
1F
100
AcDbEntity
  8
0
  6
Continuous
 62
     7
100
AcDbLine
 10
15.4082375538
 20
49.9333658224
 30
0.0
 11
17.907851581
 21
49.9277124381
 31
0.0
  0
LINE
  5
1B6
330
1F
100
AcDbEntity
  8
0
  6
Continuous
 62
     7
100
AcDbLine
 10
18.3237282876
 20
57.1267629319
 30
0.0
 11
18.3086752955
 21
50.3268053986
 31
0.0
  0
LINE
  5
1B7
330
1F
100
AcDbEntity
  8
0
  6
Continuous
 62
     7
100
AcDbLine
 10
2.9755273751
 20
59.3614732769
 30
0.0
 11
23.9722852035
 21
59.313984849
 31
0.0
  0
LINE
  5
1B8
330
1F
100
AcDbEntity
  8
0
  6
Continuous
 62
     7
100
AcDbLine
 10
17.1287836406
 20
59.3294628163
 30
0.0
 11
17.1199289394
 21
55.3294877967
 31
0.0
  0
LINE
  5
1B9
330
1F
100
AcDbEntity
  8
0
  6
Continuous
 62
     7
100
AcDbLine
 10
21.1281660841
 20
59.3204174015
 30
0.0
 11
21.1193113829
 21
55.3204423819
 31
0.0
  0
LINE
  5
1BA
330
1F
100
AcDbEntity
  8
0
  6
Continuous
 62
     7
100
AcDbLine
 10
17.0398674561
 20
64.3296577261
 30
0.0
 11
17.0289268861
 21
59.387423618
 31
0.0
  0
LINE
  5
1BB
330
1F
100
AcDbEntity
  8
0
  6
Continuous
 62
     7
100
AcDbLine
 10
21.2392190218
 20
64.3201600405
 30
0.0
 11
21.2282784518
 21
59.3779259324
 31
0.0
  0
LINE
  5
1BC
330
1F
100
AcDbEntity
  8
0
  6
Continuous
 62
     7
100
AcDbLine
 10
16.6393757929
 20
64.0805638289
 30
0.0
 11
16.6205595527
 21
55.5806169123
 31
0.0
  0
LINE
  5
1BD
330
1F
100
AcDbEntity
  8
0
  6
Continuous
 62
     7
100
AcDbLine
 10
16.8898906144
 20
64.3299969292
 30
0.0
 11
16.6393757929
 21
64.0805638289
 31
0.0
  0
LINE
  5
1BE
330
1F
100
AcDbEntity
  8
0
  6
Continuous
 62
     7
100
AcDbLine
 10
16.8699675366
 20
55.3300531352
 30
0.0
 11
16.6205595527
 21
55.5806169123
 31
0.0
  0
LINE
  5
1BF
330
1F
100
AcDbEntity
  8
0
  6
Continuous
 62
     7
100
AcDbLine
 10
21.6386038473
 20
64.0692570603
 30
0.0
 11
21.6197876071
 21
55.5693101438
 31
0.0
  0
LINE
  5
1C0
330
1F
100
AcDbEntity
  8
0
  6
Continuous
 62
     7
100
AcDbLine
 10
21.3692727856
 20
55.3198770435
 30
0.0
 11
16.8699675366
 21
55.3300531352
 31
0.0
  0
LINE
  5
1C1
330
1F
100
AcDbEntity
  8
0
  6
Continuous
 62
     7
100
AcDbLine
 10
21.6197876071
 20
55.5693101438
 30
0.0
 11
21.3692727856
 21
55.3198770435
 31
0.0
  0
LINE
  5
1C2
330
1F
100
AcDbEntity
  8
0
  6
Continuous
 62
     7
100
AcDbLine
 10
21.3891958634
 20
64.3198208375
 30
0.0
 11
16.8898906144
 21
64.3299969292
 31
0.0
  0
LINE
  5
1C3
330
1F
100
AcDbEntity
  8
0
  6
Continuous
 62
     7
100
AcDbLine
 10
21.6386038473
 20
64.0692570603
 30
0.0
 11
21.3891958634
 21
64.3198208375
 31
0.0
  0
LINE
  5
1C4
330
1F
100
AcDbEntity
  8
0
  6
Continuous
 62
     7
100
AcDbLine
 10
21.1281660841
 20
59.3204174015
 30
0.0
 11
17.1287836406
 21
59.3294628163
 31
0.0
  0
LINE
  5
1C5
330
1F
100
AcDbEntity
  8
0
  6
Continuous
 62
     7
100
AcDbLine
 10
21.1281660841
 20
59.3204174015
 30
0.0
 11
21.6287279226
 21
59.6079600564
 31
0.0
  0
LINE
  5
1C6
330
1F
100
AcDbEntity
  8
0
  6
Continuous
 62
     7
100
AcDbLine
 10
17.1287836406
 20
59.3294628163
 30
0.0
 11
16.6294998682
 21
59.6192668249
 31
0.0
  0
LINE
  5
1C7
330
1F
100
AcDbEntity
  8
0
  6
Continuous
 62
     7
100
AcDbLine
 10
21.6386038473
 20
64.0692570603
 30
0.0
 11
16.6393757929
 21
64.0805638289
 31
0.0
  0
LINE
  5
1C8
330
1F
100
AcDbEntity
  8
0
  6
Continuous
 62
     7
100
AcDbLine
 10
-4.8346124959
 20
54.8891470567
 30
0.0
 11
-1.6226790415
 21
49.2963793064
 31
0.0
  0
LINE
  5
1C9
330
1F
100
AcDbEntity
  8
0
  6
Continuous
 62
     7
100
AcDbLine
 10
5.0775502207
 20
54.8667286896
 30
0.0
 11
1.8408877541
 21
49.2885457473
 31
0.0
  0
ENDSEC
  0
SECTION
  2
OBJECTS
  0
DICTIONARY
  5
C
330
0
100
AcDbDictionary
281
     1
  3
ACAD_DETAILVIEWSTYLE
350
1D1
  3
ACAD_GROUP
350
D
  3
ACAD_LAYOUT
350
1A
  3
ACAD_MATERIAL
350
43
  3
ACAD_MLEADERSTYLE
350
6B
  3
ACAD_MLINESTYLE
350
17
  3
ACAD_PLOTSETTINGS
350
19
  3
ACAD_PLOTSTYLENAME
350
E
  3
ACAD_SCALELIST
350
47
  3
ACAD_SECTIONVIEWSTYLE
350
1D2
  3
ACAD_TABLESTYLE
350
69
  3
ACAD_VISUALSTYLE
350
2A
  3
ACDB_RECOMPOSE_DATA
350
1CE
  3
AcDbVariableDictionary
350
1CA
  0
SUN
  5
6D
330
29
100
AcDbSun
 90
        1
290
     0
 63
     7
421
 16777215
 40
1.0
291
     1
 91
  2455826
 92
 54000000
292
     0
 70
     2
 71
   256
280
     1
  0
DICTIONARY
  5
1D1
102
{ACAD_REACTORS
330
C
102
}
330
C
100
AcDbDictionary
281
     1
  0
DICTIONARY
  5
D
102
{ACAD_REACTORS
330
C
102
}
330
C
100
AcDbDictionary
281
     1
  0
DICTIONARY
  5
1A
102
{ACAD_REACTORS
330
C
102
}
330
C
100
AcDbDictionary
281
     1
  3
Layout1
350
1E
  3
Layout2
350
26
  3
Model
350
22
  0
DICTIONARY
  5
43
102
{ACAD_REACTORS
330
C
102
}
330
C
100
AcDbDictionary
281
     1
  3
ByBlock
350
45
  3
ByLayer
350
44
  3
Global
350
46
  0
DICTIONARY
  5
6B
102
{ACAD_REACTORS
330
C
102
}
330
C
100
AcDbDictionary
281
     1
  3
Standard
350
6C
  0
DICTIONARY
  5
17
102
{ACAD_REACTORS
330
C
102
}
330
C
100
AcDbDictionary
281
     1
  3
Standard
350
18
  0
DICTIONARY
  5
19
102
{ACAD_REACTORS
330
C
102
}
330
C
100
AcDbDictionary
281
     1
  0
ACDBDICTIONARYWDFLT
  5
E
102
{ACAD_REACTORS
330
C
102
}
330
C
100
AcDbDictionary
281
     1
  3
Normal
350
F
100
AcDbDictionaryWithDefault
340
F
  0
DICTIONARY
  5
47
102
{ACAD_REACTORS
330
C
102
}
330
C
100
AcDbDictionary
281
     1
  3
A0
350
48
  3
A1
350
49
  3
A2
350
4A
  3
A3
350
4B
  3
A4
350
4C
  3
A5
350
4D
  3
A6
350
4E
  3
A7
350
4F
  3
A8
350
50
  3
A9
350
51
  3
B0
350
52
  3
B1
350
53
  3
B2
350
54
  3
B3
350
55
  3
B4
350
56
  3
B5
350
57
  3
B6
350
58
  3
B7
350
59
  3
B8
350
5A
  3
B9
350
5B
  3
C0
350
5C
  3
C1
350
5D
  3
C2
350
5E
  3
C3
350
5F
  3
C4
350
60
  3
C5
350
61
  3
C6
350
62
  3
C7
350
63
  3
C8
350
64
  3
C9
350
65
  3
D0
350
66
  3
D1
350
67
  3
D2
350
68
  0
DICTIONARY
  5
1D2
102
{ACAD_REACTORS
330
C
102
}
330
C
100
AcDbDictionary
281
     1
  0
DICTIONARY
  5
69
102
{ACAD_REACTORS
330
C
102
}
330
C
100
AcDbDictionary
281
     1
  3
Standard
350
6A
  0
DICTIONARY
  5
2A
102
{ACAD_REACTORS
330
C
102
}
330
C
100
AcDbDictionary
281
     1
  3
2dWireframe
350
2F
  3
Basic
350
32
  3
Brighten
350
36
  3
ColorChange
350
3A
  3
Conceptual
350
34
  3
Dim
350
35
  3
EdgeColorOff
350
3D
  3
Facepattern
350
39
  3
Flat
350
2B
  3
FlatWithEdges
350
2C
  3
Gouraud
350
2D
  3
GouraudWithEdges
350
2E
  3
Hidden
350
31
  3
JitterOff
350
3B
  3
Linepattern
350
38
  3
OverhangOff
350
3C
  3
Realistic
350
33
  3
Shaded
350
42
  3
Shaded with edges
350
41
  3
Shades of Gray
350
3E
  3
Sketchy
350
3F
  3
Thicken
350
37
  3
Wireframe
350
30
  3
X-Ray
350
40
  0
XRECORD
  5
1CE
102
{ACAD_REACTORS
330
C
102
}
330
C
100
AcDbXrecord
280
     1
 90
        1
330
6A
  0
DICTIONARY
  5
1CA
102
{ACAD_REACTORS
330
C
102
}
330
C
100
AcDbDictionary
281
     1
  3
CANNOSCALE
350
1CB
  3
CMLEADERSTYLE
350
1D0
  3
CTABLESTYLE
350
1CF
  0
LAYOUT
  5
1E
102
{ACAD_REACTORS
330
1A
102
}
330
1A
100
AcDbPlotSettings
  1

  2
none_device
  4

  6

 40
0.0
 41
0.0
 42
0.0
 43
0.0
 44
0.0
 45
0.0
 46
0.0
 47
0.0
 48
0.0
 49
0.0
140
0.0
141
0.0
142
1.0
143
1.0
 70
   688
 72
     1
 73
     0
 74
     5
  7

 75
    16
 76
     0
 77
     2
 78
   300
147
1.0
148
0.0
149
0.0
100
AcDbLayout
  1
Layout1
 70
     1
 71
     1
 10
0.0
 20
0.0
 11
420.0
 21
297.0
 12
0.0
 22
0.0
 32
0.0
 14
1.0000000000E+20
 24
1.0000000000E+20
 34
1.0000000000E+20
 15
-1.0000000000E+20
 25
-1.0000000000E+20
 35
-1.0000000000E+20
146
0.0
 13
0.0
 23
0.0
 33
0.0
 16
1.0
 26
0.0
 36
0.0
 17
0.0
 27
1.0
 37
0.0
 76
     0
330
1B
  0
LAYOUT
  5
26
102
{ACAD_REACTORS
330
1A
102
}
330
1A
100
AcDbPlotSettings
  1

  2
none_device
  4

  6

 40
0.0
 41
0.0
 42
0.0
 43
0.0
 44
0.0
 45
0.0
 46
0.0
 47
0.0
 48
0.0
 49
0.0
140
0.0
141
0.0
142
1.0
143
1.0
 70
   688
 72
     1
 73
     0
 74
     5
  7

 75
    16
 76
     0
 77
     2
 78
   300
147
1.0
148
0.0
149
0.0
100
AcDbLayout
  1
Layout2
 70
     1
 71
     2
 10
0.0
 20
0.0
 11
0.0
 21
0.0
 12
0.0
 22
0.0
 32
0.0
 14
0.0
 24
0.0
 34
0.0
 15
0.0
 25
0.0
 35
0.0
146
0.0
 13
0.0
 23
0.0
 33
0.0
 16
1.0
 26
0.0
 36
0.0
 17
0.0
 27
1.0
 37
0.0
 76
     0
330
23
  0
LAYOUT
  5
22
102
{ACAD_REACTORS
330
1A
102
}
330
1A
100
AcDbPlotSettings
  1

  2
none_device
  4
ANSI_A_(11.00_x_8.50_Inches)
  6

 40
6.35
 41
19.05
 42
6.35000508
 43
19.05000254
 44
279.4
 45
215.9
 46
133.2837554968
 47
74.0022228412
 48
0.0
 49
0.0
140
0.0
141
0.0
142
0.0668923096
143
1.0
 70
  1696
 72
     0
 73
     0
 74
     0
  7

 75
     0
 76
     0
 77
     2
 78
   300
147
0.0179189148
148
-1300.4909072572
149
0.0
100
AcDbLayout
  1
Model
 70
     1
 71
     0
 10
0.0
 20
0.0
 11
420.0
 21
297.0
 12
0.0
 22
0.0
 32
0.0
 14
-31.0630364596
 24
-54.1313853504
 34
0.0
 15
31.1410110824
 25
71.6678290145
 35
0.0
146
0.0
 13
0.0
 23
0.0
 33
0.0
 16
1.0
 26
0.0
 36
0.0
 17
0.0
 27
1.0
 37
0.0
 76
     0
330
1F
331
29
  0
MATERIAL
  5
45
102
{ACAD_REACTORS
330
43
102
}
330
43
100
AcDbMaterial
  1
ByBlock
 72
     1
 94
      127
  0
MATERIAL
  5
44
102
{ACAD_REACTORS
330
43
102
}
330
43
100
AcDbMaterial
  1
ByLayer
 72
     1
 94
      127
  0
MATERIAL
  5
46
102
{ACAD_REACTORS
330
43
102
}
330
43
100
AcDbMaterial
  1
Global
 72
     1
 94
      127
  0
MLEADERSTYLE
  5
6C
102
{ACAD_REACTORS
330
6B
102
}
330
6B
100
AcDbMLeaderStyle
179
     2
170
     2
171
     1
172
     0
 90
        2
 40
0.0
 41
0.0
173
     1
 91
-1056964608
340
14
 92
       -2
290
     1
 42
2.0
291
     1
 43
8.0
  3
Standard
341
0
 44
4.0
300

342
11
174
     1
178
     6
175
     1
176
     0
 93
-1056964608
 45
4.0
292
     0
297
     0
 46
4.0
343
0
 94
-1056964608
 47
1.0
 49
1.0
140
1.0
293
     1
141
0.0
294
     1
177
     0
142
1.0
295
     0
296
     0
143
3.75
271
     0
272
     9
273
     9
  0
MLINESTYLE
  5
18
102
{ACAD_REACTORS
330
17
102
}
330
17
100
AcDbMlineStyle
  2
Standard
 70
     0
  3

 62
   256
 51
90.0
 52
90.0
 71
     2
 49
0.5
 62
   256
  6
BYLAYER
 49
-0.5
 62
   256
  6
BYLAYER
  0
ACDBPLACEHOLDER
  5
F
102
{ACAD_REACTORS
330
E
102
}
330
E
  0
SCALE
  5
48
102
{ACAD_REACTORS
330
47
102
}
330
47
100
AcDbScale
 70
     0
300
1:1
140
1.0
141
1.0
290
     1
  0
SCALE
  5
49
102
{ACAD_REACTORS
330
47
102
}
330
47
100
AcDbScale
 70
     0
300
1:2
140
1.0
141
2.0
290
     0
  0
SCALE
  5
4A
102
{ACAD_REACTORS
330
47
102
}
330
47
100
AcDbScale
 70
     0
300
1:4
140
1.0
141
4.0
290
     0
  0
SCALE
  5
4B
102
{ACAD_REACTORS
330
47
102
}
330
47
100
AcDbScale
 70
     0
300
1:5
140
1.0
141
5.0
290
     0
  0
SCALE
  5
4C
102
{ACAD_REACTORS
330
47
102
}
330
47
100
AcDbScale
 70
     0
300
1:8
140
1.0
141
8.0
290
     0
  0
SCALE
  5
4D
102
{ACAD_REACTORS
330
47
102
}
330
47
100
AcDbScale
 70
     0
300
1:10
140
1.0
141
10.0
290
     0
  0
SCALE
  5
4E
102
{ACAD_REACTORS
330
47
102
}
330
47
100
AcDbScale
 70
     0
300
1:16
140
1.0
141
16.0
290
     0
  0
SCALE
  5
4F
102
{ACAD_REACTORS
330
47
102
}
330
47
100
AcDbScale
 70
     0
300
1:20
140
1.0
141
20.0
290
     0
  0
SCALE
  5
50
102
{ACAD_REACTORS
330
47
102
}
330
47
100
AcDbScale
 70
     0
300
1:30
140
1.0
141
30.0
290
     0
  0
SCALE
  5
51
102
{ACAD_REACTORS
330
47
102
}
330
47
100
AcDbScale
 70
     0
300
1:40
140
1.0
141
40.0
290
     0
  0
SCALE
  5
52
102
{ACAD_REACTORS
330
47
102
}
330
47
100
AcDbScale
 70
     0
300
1:50
140
1.0
141
50.0
290
     0
  0
SCALE
  5
53
102
{ACAD_REACTORS
330
47
102
}
330
47
100
AcDbScale
 70
     0
300
1:100
140
1.0
141
100.0
290
     0
  0
SCALE
  5
54
102
{ACAD_REACTORS
330
47
102
}
330
47
100
AcDbScale
 70
     0
300
2:1
140
2.0
141
1.0
290
     0
  0
SCALE
  5
55
102
{ACAD_REACTORS
330
47
102
}
330
47
100
AcDbScale
 70
     0
300
4:1
140
4.0
141
1.0
290
     0
  0
SCALE
  5
56
102
{ACAD_REACTORS
330
47
102
}
330
47
100
AcDbScale
 70
     0
300
8:1
140
8.0
141
1.0
290
     0
  0
SCALE
  5
57
102
{ACAD_REACTORS
330
47
102
}
330
47
100
AcDbScale
 70
     0
300
10:1
140
10.0
141
1.0
290
     0
  0
SCALE
  5
58
102
{ACAD_REACTORS
330
47
102
}
330
47
100
AcDbScale
 70
     0
300
100:1
140
100.0
141
1.0
290
     0
  0
SCALE
  5
59
102
{ACAD_REACTORS
330
47
102
}
330
47
100
AcDbScale
 70
     0
300
1/128" = 1'-0"
140
0.0078125
141
12.0
290
     0
  0
SCALE
  5
5A
102
{ACAD_REACTORS
330
47
102
}
330
47
100
AcDbScale
 70
     0
300
1/64" = 1'-0"
140
0.015625
141
12.0
290
     0
  0
SCALE
  5
5B
102
{ACAD_REACTORS
330
47
102
}
330
47
100
AcDbScale
 70
     0
300
1/32" = 1'-0"
140
0.03125
141
12.0
290
     0
  0
SCALE
  5
5C
102
{ACAD_REACTORS
330
47
102
}
330
47
100
AcDbScale
 70
     0
300
1/16" = 1'-0"
140
0.0625
141
12.0
290
     0
  0
SCALE
  5
5D
102
{ACAD_REACTORS
330
47
102
}
330
47
100
AcDbScale
 70
     0
300
3/32" = 1'-0"
140
0.09375
141
12.0
290
     0
  0
SCALE
  5
5E
102
{ACAD_REACTORS
330
47
102
}
330
47
100
AcDbScale
 70
     0
300
1/8" = 1'-0"
140
0.125
141
12.0
290
     0
  0
SCALE
  5
5F
102
{ACAD_REACTORS
330
47
102
}
330
47
100
AcDbScale
 70
     0
300
3/16" = 1'-0"
140
0.1875
141
12.0
290
     0
  0
SCALE
  5
60
102
{ACAD_REACTORS
330
47
102
}
330
47
100
AcDbScale
 70
     0
300
1/4" = 1'-0"
140
0.25
141
12.0
290
     0
  0
SCALE
  5
61
102
{ACAD_REACTORS
330
47
102
}
330
47
100
AcDbScale
 70
     0
300
3/8" = 1'-0"
140
0.375
141
12.0
290
     0
  0
SCALE
  5
62
102
{ACAD_REACTORS
330
47
102
}
330
47
100
AcDbScale
 70
     0
300
1/2" = 1'-0"
140
0.5
141
12.0
290
     0
  0
SCALE
  5
63
102
{ACAD_REACTORS
330
47
102
}
330
47
100
AcDbScale
 70
     0
300
3/4" = 1'-0"
140
0.75
141
12.0
290
     0
  0
SCALE
  5
64
102
{ACAD_REACTORS
330
47
102
}
330
47
100
AcDbScale
 70
     0
300
1" = 1'-0"
140
1.0
141
12.0
290
     0
  0
SCALE
  5
65
102
{ACAD_REACTORS
330
47
102
}
330
47
100
AcDbScale
 70
     0
300
1-1/2" = 1'-0"
140
1.5
141
12.0
290
     0
  0
SCALE
  5
66
102
{ACAD_REACTORS
330
47
102
}
330
47
100
AcDbScale
 70
     0
300
3" = 1'-0"
140
3.0
141
12.0
290
     0
  0
SCALE
  5
67
102
{ACAD_REACTORS
330
47
102
}
330
47
100
AcDbScale
 70
     0
300
6" = 1'-0"
140
6.0
141
12.0
290
     0
  0
SCALE
  5
68
102
{ACAD_REACTORS
330
47
102
}
330
47
100
AcDbScale
 70
     0
300
1'-0" = 1'-0"
140
12.0
141
12.0
290
     0
  0
TABLESTYLE
  5
6A
102
{ACAD_REACTORS
330
69
102
}
102
{ACAD_XDICTIONARY
360
1CC
102
}
330
69
100
AcDbTableStyle
  3
Standard
 70
     0
 71
     0
 40
0.06
 41
0.06
280
     0
281
     0
  7
Standard
140
4.5
170
     2
 62
     0
 63
   257
283
     0
 90
        4
 91
        0
  1

274
    -2
284
     1
 64
     0
275
    -2
285
     1
 65
     0
276
    -2
286
     1
 66
     0
277
    -2
287
     1
 67
     0
278
    -2
288
     1
 68
     0
279
    -2
289
     1
 69
     0
  7
Standard
140
6.0
170
     5
 62
     0
 63
   257
283
     0
 90
        4
 91
        0
  1

274
    -2
284
     1
 64
     0
275
    -2
285
     1
 65
     0
276
    -2
286
     1
 66
     0
277
    -2
287
     1
 67
     0
278
    -2
288
     1
 68
     0
279
    -2
289
     1
 69
     0
  7
Standard
140
4.5
170
     5
 62
     0
 63
   257
283
     0
 90
        4
 91
        0
  1

274
    -2
284
     1
 64
     0
275
    -2
285
     1
 65
     0
276
    -2
286
     1
 66
     0
277
    -2
287
     1
 67
     0
278
    -2
288
     1
 68
     0
279
    -2
289
     1
 69
     0
  0
VISUALSTYLE
  5
2F
102
{ACAD_REACTORS
330
2A
102
}
330
2A
100
AcDbVisualStyle
  2
2dWireframe
 70
     4
177
     2
291
     0
 71
     0
176
     1
 72
     2
176
     1
 73
     0
176
     1
 90
        0
176
     1
 40
0.6
176
     1
 41
30.0
176
     1
 62
     5
 63
     7
421
 16777215
176
     1
 74
     1
176
     1
 91
        4
176
     1
 64
     7
176
     1
 65
   257
176
     1
 75
     1
176
     1
175
     1
176
     1
 42
1.0
176
     1
 92
        0
176
     1
 66
   257
176
     1
 43
1.0
176
     1
 76
     1
176
     1
 77
     6
176
     1
 78
     2
176
     1
 67
     7
176
     1
 79
     5
176
     1
170
     0
176
     1
171
     0
176
     1
290
     0
176
     1
 93
        1
176
     1
 44
0.0
176
     1
173
     0
176
     1
  0
VISUALSTYLE
  5
32
102
{ACAD_REACTORS
330
2A
102
}
330
2A
100
AcDbVisualStyle
  2
Basic
 70
     7
177
     2
291
     1
 71
     1
176
     1
 72
     0
176
     1
 73
     1
176
     1
 90
        0
176
     1
 40
0.6
176
     1
 41
30.0
176
     1
 62
     5
 63
     7
421
 16777215
176
     1
 74
     0
176
     1
 91
        4
176
     1
 64
     7
176
     1
 65
   257
176
     1
 75
     1
176
     1
175
     1
176
     1
 42
1.0
176
     1
 92
        8
176
     1
 66
     7
176
     1
 43
1.0
176
     1
 76
     1
176
     1
 77
     6
176
     1
 78
     2
176
     1
 67
     7
176
     1
 79
     5
176
     1
170
     0
176
     1
171
     0
176
     1
290
     0
176
     1
 93
        1
176
     1
 44
0.0
176
     1
173
     0
176
     1
  0
VISUALSTYLE
  5
36
102
{ACAD_REACTORS
330
2A
102
}
330
2A
100
AcDbVisualStyle
  2
Brighten
 70
    12
177
     2
291
     1
 71
     2
176
     1
 72
     2
176
     1
 73
     0
176
     1
 90
        0
176
     1
 40
0.6
176
     1
 41
30.0
176
     1
 62
     5
 63
     7
421
 16777215
176
     1
 74
     1
176
     1
 91
        4
176
     1
 64
     7
176
     1
 65
   257
176
     1
 75
     1
176
     1
175
     1
176
     1
 42
1.0
176
     1
 92
        8
176
     1
 66
     7
176
     1
 43
1.0
176
     1
 76
     1
176
     1
 77
     6
176
     1
 78
     2
176
     1
 67
     7
176
     1
 79
     5
176
     1
170
     0
176
     1
171
     0
176
     1
290
     0
176
     1
 93
        1
176
     1
 44
50.0
176
     1
173
     0
176
     1
  0
VISUALSTYLE
  5
3A
102
{ACAD_REACTORS
330
2A
102
}
330
2A
100
AcDbVisualStyle
  2
ColorChange
 70
    16
177
     2
291
     1
 71
     2
176
     1
 72
     2
176
     1
 73
     3
176
     1
 90
        0
176
     1
 40
0.6
176
     1
 41
30.0
176
     1
 62
     5
 63
     8
421
  8421504
176
     1
 74
     1
176
     1
 91
        4
176
     1
 64
     7
176
     1
 65
   257
176
     1
 75
     1
176
     1
175
     1
176
     1
 42
1.0
176
     1
 92
        8
176
     1
 66
     8
424
  8421504
176
     1
 43
1.0
176
     1
 76
     1
176
     1
 77
     6
176
     1
 78
     2
176
     1
 67
     7
176
     1
 79
     5
176
     1
170
     0
176
     1
171
     0
176
     1
290
     0
176
     1
 93
        1
176
     1
 44
0.0
176
     1
173
     0
176
     1
  0
VISUALSTYLE
  5
34
102
{ACAD_REACTORS
330
2A
102
}
330
2A
100
AcDbVisualStyle
  2
Conceptual
 70
     9
177
     2
291
     0
 71
     3
176
     1
 72
     2
176
     1
 73
     0
176
     1
 90
        0
176
     1
 40
0.6
176
     1
 41
30.0
176
     1
 62
     5
 63
     7
421
 16777215
176
     1
 74
     2
176
     1
 91
        2
176
     1
 64
     7
176
     1
 65
   257
176
     1
 75
     1
176
     1
175
     1
176
     1
 42
179.0
176
     1
 92
        8
176
     1
 66
     7
176
     1
 43
1.0
176
     1
 76
     1
176
     1
 77
     6
176
     1
 78
     2
176
     1
 67
     7
176
     1
 79
     3
176
     1
170
     0
176
     1
171
     0
176
     1
290
     0
176
     1
 93
        1
176
     1
 44
0.0
176
     1
173
     0
176
     1
  0
VISUALSTYLE
  5
35
102
{ACAD_REACTORS
330
2A
102
}
330
2A
100
AcDbVisualStyle
  2
Dim
 70
    11
177
     2
291
     1
 71
     2
176
     1
 72
     2
176
     1
 73
     0
176
     1
 90
        0
176
     1
 40
0.6
176
     1
 41
30.0
176
     1
 62
     5
 63
     7
421
 16777215
176
     1
 74
     1
176
     1
 91
        4
176
     1
 64
     7
176
     1
 65
   257
176
     1
 75
     1
176
     1
175
     1
176
     1
 42
1.0
176
     1
 92
        8
176
     1
 66
     7
176
     1
 43
1.0
176
     1
 76
     1
176
     1
 77
     6
176
     1
 78
     2
176
     1
 67
     7
176
     1
 79
     5
176
     1
170
     0
176
     1
171
     0
176
     1
290
     0
176
     1
 93
        1
176
     1
 44
-50.0
176
     1
173
     0
176
     1
  0
VISUALSTYLE
  5
3D
102
{ACAD_REACTORS
330
2A
102
}
330
2A
100
AcDbVisualStyle
  2
EdgeColorOff
 70
    22
177
     2
291
     1
 71
     2
176
     0
 72
     2
176
     0
 73
     0
176
     0
 90
        0
176
     0
 40
0.6
176
     0
 41
30.0
176
     0
 62
     5
 63
     7
421
 16777215
176
     0
 74
     1
176
     0
 91
        4
176
     0
 64
     7
176
     0
 65
   257
176
     0
 75
     1
176
     0
175
     1
176
     0
 42
1.0
176
     0
 92
        8
176
     2
 66
     7
176
     0
 43
1.0
176
     0
 76
     1
176
     0
 77
     6
176
     0
 78
     2
176
     0
 67
     7
176
     0
 79
     5
176
     0
170
     0
176
     0
171
     0
176
     0
290
     0
176
     0
 93
        1
176
     0
 44
0.0
176
     0
173
     0
176
     0
  0
VISUALSTYLE
  5
39
102
{ACAD_REACTORS
330
2A
102
}
330
2A
100
AcDbVisualStyle
  2
Facepattern
 70
    15
177
     2
291
     1
 71
     2
176
     1
 72
     2
176
     1
 73
     0
176
     1
 90
        0
176
     1
 40
0.6
176
     1
 41
30.0
176
     1
 62
     5
 63
     7
421
 16777215
176
     1
 74
     1
176
     1
 91
        4
176
     1
 64
     7
176
     1
 65
   257
176
     1
 75
     1
176
     1
175
     1
176
     1
 42
1.0
176
     1
 92
        8
176
     1
 66
     7
176
     1
 43
1.0
176
     1
 76
     1
176
     1
 77
     6
176
     1
 78
     2
176
     1
 67
     7
176
     1
 79
     5
176
     1
170
     0
176
     1
171
     0
176
     1
290
     0
176
     1
 93
        1
176
     1
 44
0.0
176
     1
173
     0
176
     1
  0
VISUALSTYLE
  5
2B
102
{ACAD_REACTORS
330
2A
102
}
330
2A
100
AcDbVisualStyle
  2
Flat
 70
     0
177
     2
291
     1
 71
     2
176
     1
 72
     1
176
     1
 73
     1
176
     1
 90
        2
176
     1
 40
0.6
176
     1
 41
30.0
176
     1
 62
     5
 63
     7
421
 16777215
176
     1
 74
     0
176
     1
 91
        0
176
     1
 64
     7
176
     1
 65
   257
176
     1
 75
     1
176
     1
175
     1
176
     1
 42
1.0
176
     1
 92
        8
176
     1
 66
     7
176
     1
 43
1.0
176
     1
 76
     1
176
     1
 77
     6
176
     1
 78
     2
176
     1
 67
     7
176
     1
 79
     5
176
     1
170
     0
176
     1
171
     0
176
     1
290
     0
176
     1
 93
       13
176
     1
 44
0.0
176
     1
173
     0
176
     1
  0
VISUALSTYLE
  5
2C
102
{ACAD_REACTORS
330
2A
102
}
330
2A
100
AcDbVisualStyle
  2
FlatWithEdges
 70
     1
177
     2
291
     1
 71
     2
176
     1
 72
     1
176
     1
 73
     1
176
     1
 90
        2
176
     1
 40
0.6
176
     1
 41
30.0
176
     1
 62
     5
 63
     7
421
 16777215
176
     1
 74
     1
176
     1
 91
        0
176
     1
 64
     7
176
     1
 65
   257
176
     1
 75
     1
176
     1
175
     1
176
     1
 42
1.0
176
     1
 92
        0
176
     1
 66
   257
176
     1
 43
1.0
176
     1
 76
     1
176
     1
 77
     6
176
     1
 78
     2
176
     1
 67
     7
176
     1
 79
     5
176
     1
170
     0
176
     1
171
     0
176
     1
290
     0
176
     1
 93
       13
176
     1
 44
0.0
176
     1
173
     0
176
     1
  0
VISUALSTYLE
  5
2D
102
{ACAD_REACTORS
330
2A
102
}
330
2A
100
AcDbVisualStyle
  2
Gouraud
 70
     2
177
     2
291
     1
 71
     2
176
     1
 72
     2
176
     1
 73
     1
176
     1
 90
        2
176
     1
 40
0.6
176
     1
 41
30.0
176
     1
 62
     5
 63
     7
421
 16777215
176
     1
 74
     0
176
     1
 91
        0
176
     1
 64
     7
176
     1
 65
   257
176
     1
 75
     1
176
     1
175
     1
176
     1
 42
1.0
176
     1
 92
        0
176
     1
 66
     7
176
     1
 43
1.0
176
     1
 76
     1
176
     1
 77
     6
176
     1
 78
     2
176
     1
 67
     7
176
     1
 79
     5
176
     1
170
     0
176
     1
171
     0
176
     1
290
     0
176
     1
 93
       13
176
     1
 44
0.0
176
     1
173
     0
176
     1
  0
VISUALSTYLE
  5
2E
102
{ACAD_REACTORS
330
2A
102
}
330
2A
100
AcDbVisualStyle
  2
GouraudWithEdges
 70
     3
177
     2
291
     1
 71
     2
176
     1
 72
     2
176
     1
 73
     1
176
     1
 90
        2
176
     1
 40
0.6
176
     1
 41
30.0
176
     1
 62
     5
 63
     7
421
 16777215
176
     1
 74
     1
176
     1
 91
        0
176
     1
 64
     7
176
     1
 65
   257
176
     1
 75
     1
176
     1
175
     1
176
     1
 42
1.0
176
     1
 92
        0
176
     1
 66
   257
176
     1
 43
1.0
176
     1
 76
     1
176
     1
 77
     6
176
     1
 78
     2
176
     1
 67
     7
176
     1
 79
     5
176
     1
170
     0
176
     1
171
     0
176
     1
290
     0
176
     1
 93
       13
176
     1
 44
0.0
176
     1
173
     0
176
     1
  0
VISUALSTYLE
  5
31
102
{ACAD_REACTORS
330
2A
102
}
330
2A
100
AcDbVisualStyle
  2
Hidden
 70
     6
177
     2
291
     0
 71
     1
176
     1
 72
     2
176
     1
 73
     2
176
     1
 90
        0
176
     1
 40
0.6
176
     1
 41
30.0
176
     1
 62
     5
 63
     7
421
 16777215
176
     1
 74
     2
176
     1
 91
        2
176
     1
 64
     7
176
     1
 65
   257
176
     1
 75
     2
176
     1
175
     1
176
     1
 42
40.0
176
     1
 92
        0
176
     1
 66
   257
176
     1
 43
1.0
176
     1
 76
     1
176
     1
 77
     6
176
     1
 78
     2
176
     1
 67
     7
176
     1
 79
     3
176
     1
170
     0
176
     1
171
     0
176
     1
290
     0
176
     1
 93
        1
176
     1
 44
0.0
176
     1
173
     0
176
     1
  0
VISUALSTYLE
  5
3B
102
{ACAD_REACTORS
330
2A
102
}
330
2A
100
AcDbVisualStyle
  2
JitterOff
 70
    20
177
     2
291
     1
 71
     2
176
     0
 72
     2
176
     0
 73
     0
176
     0
 90
        0
176
     0
 40
0.6
176
     0
 41
30.0
176
     0
 62
     5
 63
     7
421
 16777215
176
     0
 74
     1
176
     0
 91
        4
176
     0
 64
     7
176
     0
 65
   257
176
     0
 75
     1
176
     0
175
     1
176
     0
 42
1.0
176
     0
 92
       10
176
     2
 66
     7
176
     0
 43
1.0
176
     0
 76
     1
176
     0
 77
     6
176
     0
 78
     2
176
     0
 67
     7
176
     0
 79
     5
176
     0
170
     0
176
     0
171
     0
176
     0
290
     0
176
     0
 93
        1
176
     0
 44
0.0
176
     0
173
     0
176
     0
  0
VISUALSTYLE
  5
38
102
{ACAD_REACTORS
330
2A
102
}
330
2A
100
AcDbVisualStyle
  2
Linepattern
 70
    14
177
     2
291
     1
 71
     2
176
     1
 72
     2
176
     1
 73
     0
176
     1
 90
        0
176
     1
 40
0.6
176
     1
 41
30.0
176
     1
 62
     5
 63
     7
421
 16777215
176
     1
 74
     1
176
     1
 91
        4
176
     1
 64
     7
176
     1
 65
   257
176
     1
 75
     7
176
     1
175
     7
176
     1
 42
1.0
176
     1
 92
        8
176
     1
 66
     7
176
     1
 43
1.0
176
     1
 76
     1
176
     1
 77
     6
176
     1
 78
     2
176
     1
 67
     7
176
     1
 79
     5
176
     1
170
     0
176
     1
171
     0
176
     1
290
     0
176
     1
 93
        1
176
     1
 44
0.0
176
     1
173
     0
176
     1
  0
VISUALSTYLE
  5
3C
102
{ACAD_REACTORS
330
2A
102
}
330
2A
100
AcDbVisualStyle
  2
OverhangOff
 70
    21
177
     2
291
     1
 71
     2
176
     0
 72
     2
176
     0
 73
     0
176
     0
 90
        0
176
     0
 40
0.6
176
     0
 41
30.0
176
     0
 62
     5
 63
     7
421
 16777215
176
     0
 74
     1
176
     0
 91
        4
176
     0
 64
     7
176
     0
 65
   257
176
     0
 75
     1
176
     0
175
     1
176
     0
 42
1.0
176
     0
 92
        9
176
     2
 66
     7
176
     0
 43
1.0
176
     0
 76
     1
176
     0
 77
     6
176
     0
 78
     2
176
     0
 67
     7
176
     0
 79
     5
176
     0
170
     0
176
     0
171
     0
176
     0
290
     0
176
     0
 93
        1
176
     0
 44
0.0
176
     0
173
     0
176
     0
  0
VISUALSTYLE
  5
33
102
{ACAD_REACTORS
330
2A
102
}
330
2A
100
AcDbVisualStyle
  2
Realistic
 70
     8
177
     2
291
     0
 71
     2
176
     1
 72
     3
176
     1
 73
     0
176
     1
 90
        2
176
     1
 40
0.6
176
     1
 41
30.0
176
     1
 62
     5
 63
     7
421
 16777215
176
     1
 74
     0
176
     1
 91
        0
176
     1
 64
     7
176
     1
 65
   257
176
     1
 75
     1
176
     1
175
     1
176
     1
 42
1.0
176
     1
 92
        8
176
     1
 66
   257
176
     1
 43
1.0
176
     1
 76
     1
176
     1
 77
     6
176
     1
 78
     2
176
     1
 67
     7
176
     1
 79
     3
176
     1
170
     0
176
     1
171
     0
176
     1
290
     0
176
     1
 93
       13
176
     1
 44
0.0
176
     1
173
     0
176
     1
  0
VISUALSTYLE
  5
42
102
{ACAD_REACTORS
330
2A
102
}
330
2A
100
AcDbVisualStyle
  2
Shaded
 70
    27
177
     2
291
     0
 71
     2
176
     1
 72
     2
176
     1
 73
     1
176
     1
 90
        2
176
     1
 40
0.6
176
     1
 41
30.0
176
     1
 62
     5
 63
     7
421
 16777215
176
     1
 74
     0
176
     1
 91
        4
176
     1
 64
     7
176
     1
 65
   257
176
     1
 75
     1
176
     1
175
     1
176
     1
 42
1.0
176
     1
 92
        8
176
     1
 66
   257
176
     1
 43
1.0
176
     1
 76
     1
176
     1
 77
     6
176
     1
 78
     2
176
     1
 67
     8
425
  7895160
176
     1
 79
     3
176
     1
170
     0
176
     1
171
     0
176
     1
290
     0
176
     1
 93
        5
176
     1
 44
0.0
176
     1
173
     0
176
     1
  0
VISUALSTYLE
  5
41
102
{ACAD_REACTORS
330
2A
102
}
330
2A
100
AcDbVisualStyle
  2
Shaded with edges
 70
    26
177
     2
291
     0
 71
     2
176
     1
 72
     2
176
     1
 73
     1
176
     1
 90
        2
176
     1
 40
0.6
176
     1
 41
30.0
176
     1
 62
     5
 63
     7
421
 16777215
176
     1
 74
     1
176
     1
 91
       10
176
     1
 64
     7
176
     1
 65
   257
176
     1
 75
     2
176
     1
175
     1
176
     1
 42
1.0
176
     1
 92
        8
176
     1
 66
   257
176
     1
 43
1.0
176
     1
 76
     1
176
     1
 77
     6
176
     1
 78
     2
176
     1
 67
     7
176
     1
 79
     3
176
     1
170
     0
176
     1
171
     0
176
     1
290
     0
176
     1
 93
        5
176
     1
 44
0.0
176
     1
173
     0
176
     1
  0
VISUALSTYLE
  5
3E
102
{ACAD_REACTORS
330
2A
102
}
330
2A
100
AcDbVisualStyle
  2
Shades of Gray
 70
    23
177
     2
291
     0
 71
     2
176
     1
 72
     2
176
     1
 73
     3
176
     1
 90
        0
176
     1
 40
0.6
176
     1
 41
30.0
176
     1
 62
     5
 63
     7
421
 16777215
176
     1
 74
     2
176
     1
 91
        2
176
     1
 64
     7
176
     1
 65
     7
176
     1
 75
     1
176
     1
175
     1
176
     1
 42
40.0
176
     1
 92
        8
176
     1
 66
     7
176
     1
 43
1.0
176
     1
 76
     1
176
     1
 77
     6
176
     1
 78
     2
176
     1
 67
     7
176
     1
 79
     3
176
     1
170
     0
176
     1
171
     0
176
     1
290
     0
176
     1
 93
        1
176
     1
 44
0.0
176
     1
173
     0
176
     1
  0
VISUALSTYLE
  5
3F
102
{ACAD_REACTORS
330
2A
102
}
330
2A
100
AcDbVisualStyle
  2
Sketchy
 70
    24
177
     2
291
     0
 71
     1
176
     1
 72
     2
176
     1
 73
     2
176
     1
 90
        0
176
     1
 40
0.6
176
     1
 41
30.0
176
     1
 62
     5
 63
     7
421
 16777215
176
     1
 74
     2
176
     1
 91
        2
176
     1
 64
     7
176
     1
 65
     7
176
     1
 75
     1
176
     1
175
     1
176
     1
 42
40.0
176
     1
 92
       11
176
     1
 66
     7
176
     1
 43
1.0
176
     1
 76
     1
176
     1
 77
     6
176
     1
 78
     2
176
     1
 67
     7
176
     1
 79
     6
176
     1
170
     0
176
     1
171
     0
176
     1
290
     0
176
     1
 93
        1
176
     1
 44
0.0
176
     1
173
     0
176
     1
  0
VISUALSTYLE
  5
37
102
{ACAD_REACTORS
330
2A
102
}
330
2A
100
AcDbVisualStyle
  2
Thicken
 70
    13
177
     2
291
     1
 71
     2
176
     1
 72
     2
176
     1
 73
     0
176
     1
 90
        0
176
     1
 40
0.6
176
     1
 41
30.0
176
     1
 62
     5
 63
     7
421
 16777215
176
     1
 74
     1
176
     1
 91
        4
176
     1
 64
     7
176
     1
 65
   257
176
     1
 75
     1
176
     1
175
     1
176
     1
 42
1.0
176
     1
 92
       12
176
     1
 66
     7
176
     1
 43
1.0
176
     1
 76
     1
176
     1
 77
     6
176
     1
 78
     2
176
     1
 67
     7
176
     1
 79
     5
176
     1
170
     0
176
     1
171
     0
176
     1
290
     0
176
     1
 93
        1
176
     1
 44
0.0
176
     1
173
     0
176
     1
  0
VISUALSTYLE
  5
30
102
{ACAD_REACTORS
330
2A
102
}
330
2A
100
AcDbVisualStyle
  2
Wireframe
 70
     5
177
     2
291
     0
 71
     0
176
     1
 72
     2
176
     1
 73
     0
176
     1
 90
        0
176
     1
 40
0.6
176
     1
 41
30.0
176
     1
 62
     5
 63
     7
421
 16777215
176
     1
 74
     1
176
     1
 91
        4
176
     1
 64
     7
176
     1
 65
   257
176
     1
 75
     1
176
     1
175
     1
176
     1
 42
1.0
176
     1
 92
        0
176
     1
 66
   257
176
     1
 43
1.0
176
     1
 76
     1
176
     1
 77
     6
176
     1
 78
     2
176
     1
 67
     7
176
     1
 79
     3
176
     1
170
     0
176
     1
171
     0
176
     1
290
     0
176
     1
 93
        1
176
     1
 44
0.0
176
     1
173
     0
176
     1
  0
VISUALSTYLE
  5
40
102
{ACAD_REACTORS
330
2A
102
}
330
2A
100
AcDbVisualStyle
  2
X-Ray
 70
    25
177
     2
291
     0
 71
     2
176
     1
 72
     2
176
     1
 73
     1
176
     1
 90
        1
176
     1
 40
0.5
176
     1
 41
30.0
176
     1
 62
     5
 63
     7
421
 16777215
176
     1
 74
     1
176
     1
 91
        0
176
     1
 64
     7
176
     1
 65
   257
176
     1
 75
     1
176
     1
175
     1
176
     1
 42
1.0
176
     1
 92
        8
176
     1
 66
     7
176
     1
 43
1.0
176
     1
 76
     1
176
     1
 77
     6
176
     1
 78
     2
176
     1
 67
     7
176
     1
 79
     3
176
     1
170
     0
176
     1
171
     0
176
     1
290
     0
176
     1
 93
       13
176
     1
 44
0.0
176
     1
173
     0
176
     1
  0
DICTIONARYVAR
  5
1CB
102
{ACAD_REACTORS
330
1CA
102
}
330
1CA
100
DictionaryVariables
280
     0
  1
1:1
  0
DICTIONARYVAR
  5
1D0
102
{ACAD_REACTORS
330
1CA
102
}
330
1CA
100
DictionaryVariables
280
     0
  1
Standard
  0
DICTIONARYVAR
  5
1CF
102
{ACAD_REACTORS
330
1CA
102
}
330
1CA
100
DictionaryVariables
280
     0
  1
Standard
  0
DICTIONARY
  5
1CC
330
6A
100
AcDbDictionary
280
     1
281
     1
  3
ACAD_ROUNDTRIP_2008_TABLESTYLE_CELLSTYLEMAP
360
1CD
  0
CELLSTYLEMAP
  5
1CD
102
{ACAD_REACTORS
330
1CC
102
}
330
1CC
100
AcDbCellStyleMap
 90
        3
300
CELLSTYLE
  1
TABLEFORMAT_BEGIN
 90
        5
170
     1
 91
        0
 92
    32768
 62
   257
 93
        1
300
CONTENTFORMAT
  1
CONTENTFORMAT_BEGIN
 90
        0
 91
        0
 92
        4
 93
        0
300

 40
0.0
140
1.0
 94
        5
 62
     0
340
11
144
6.0
309
CONTENTFORMAT_END
171
     1
301
MARGIN
  1
CELLMARGIN_BEGIN
 40
1.5
 40
1.5
 40
1.5
 40
1.5
 40
1.5
 40
1.5
309
CELLMARGIN_END
 94
        6
 95
        1
302
GRIDFORMAT
  1
GRIDFORMAT_BEGIN
 90
        0
 91
        1
 62
     0
 92
       -2
340
14
 93
        0
 40
0.045
309
GRIDFORMAT_END
 95
        2
302
GRIDFORMAT
  1
GRIDFORMAT_BEGIN
 90
        0
 91
        1
 62
     0
 92
       -2
340
14
 93
        0
 40
0.045
309
GRIDFORMAT_END
 95
        4
302
GRIDFORMAT
  1
GRIDFORMAT_BEGIN
 90
        0
 91
        1
 62
     0
 92
       -2
340
14
 93
        0
 40
0.045
309
GRIDFORMAT_END
 95
        8
302
GRIDFORMAT
  1
GRIDFORMAT_BEGIN
 90
        0
 91
        1
 62
     0
 92
       -2
340
14
 93
        0
 40
0.045
309
GRIDFORMAT_END
 95
       16
302
GRIDFORMAT
  1
GRIDFORMAT_BEGIN
 90
        0
 91
        1
 62
     0
 92
       -2
340
14
 93
        0
 40
0.045
309
GRIDFORMAT_END
 95
       32
302
GRIDFORMAT
  1
GRIDFORMAT_BEGIN
 90
        0
 91
        1
 62
     0
 92
       -2
340
14
 93
        0
 40
0.045
309
GRIDFORMAT_END
309
TABLEFORMAT_END
  1
CELLSTYLE_BEGIN
 90
        1
 91
        1
300
_TITLE
309
CELLSTYLE_END
300
CELLSTYLE
  1
TABLEFORMAT_BEGIN
 90
        5
170
     1
 91
        0
 92
        0
 62
   257
 93
        1
300
CONTENTFORMAT
  1
CONTENTFORMAT_BEGIN
 90
        0
 91
        0
 92
        4
 93
        0
300

 40
0.0
140
1.0
 94
        5
 62
     0
340
11
144
4.5
309
CONTENTFORMAT_END
171
     1
301
MARGIN
  1
CELLMARGIN_BEGIN
 40
1.5
 40
1.5
 40
1.5
 40
1.5
 40
1.5
 40
1.5
309
CELLMARGIN_END
 94
        6
 95
        1
302
GRIDFORMAT
  1
GRIDFORMAT_BEGIN
 90
        0
 91
        1
 62
     0
 92
       -2
340
14
 93
        0
 40
0.045
309
GRIDFORMAT_END
 95
        2
302
GRIDFORMAT
  1
GRIDFORMAT_BEGIN
 90
        0
 91
        1
 62
     0
 92
       -2
340
14
 93
        0
 40
0.045
309
GRIDFORMAT_END
 95
        4
302
GRIDFORMAT
  1
GRIDFORMAT_BEGIN
 90
        0
 91
        1
 62
     0
 92
       -2
340
14
 93
        0
 40
0.045
309
GRIDFORMAT_END
 95
        8
302
GRIDFORMAT
  1
GRIDFORMAT_BEGIN
 90
        0
 91
        1
 62
     0
 92
       -2
340
14
 93
        0
 40
0.045
309
GRIDFORMAT_END
 95
       16
302
GRIDFORMAT
  1
GRIDFORMAT_BEGIN
 90
        0
 91
        1
 62
     0
 92
       -2
340
14
 93
        0
 40
0.045
309
GRIDFORMAT_END
 95
       32
302
GRIDFORMAT
  1
GRIDFORMAT_BEGIN
 90
        0
 91
        1
 62
     0
 92
       -2
340
14
 93
        0
 40
0.045
309
GRIDFORMAT_END
309
TABLEFORMAT_END
  1
CELLSTYLE_BEGIN
 90
        2
 91
        1
300
_HEADER
309
CELLSTYLE_END
300
CELLSTYLE
  1
TABLEFORMAT_BEGIN
 90
        5
170
     1
 91
        0
 92
        0
 62
   257
 93
        1
300
CONTENTFORMAT
  1
CONTENTFORMAT_BEGIN
 90
        0
 91
        0
 92
        4
 93
        0
300

 40
0.0
140
1.0
 94
        2
 62
     0
340
11
144
4.5
309
CONTENTFORMAT_END
171
     1
301
MARGIN
  1
CELLMARGIN_BEGIN
 40
1.5
 40
1.5
 40
1.5
 40
1.5
 40
1.5
 40
1.5
309
CELLMARGIN_END
 94
        6
 95
        1
302
GRIDFORMAT
  1
GRIDFORMAT_BEGIN
 90
        0
 91
        1
 62
     0
 92
       -2
340
14
 93
        0
 40
0.045
309
GRIDFORMAT_END
 95
        2
302
GRIDFORMAT
  1
GRIDFORMAT_BEGIN
 90
        0
 91
        1
 62
     0
 92
       -2
340
14
 93
        0
 40
0.045
309
GRIDFORMAT_END
 95
        4
302
GRIDFORMAT
  1
GRIDFORMAT_BEGIN
 90
        0
 91
        1
 62
     0
 92
       -2
340
14
 93
        0
 40
0.045
309
GRIDFORMAT_END
 95
        8
302
GRIDFORMAT
  1
GRIDFORMAT_BEGIN
 90
        0
 91
        1
 62
     0
 92
       -2
340
14
 93
        0
 40
0.045
309
GRIDFORMAT_END
 95
       16
302
GRIDFORMAT
  1
GRIDFORMAT_BEGIN
 90
        0
 91
        1
 62
     0
 92
       -2
340
14
 93
        0
 40
0.045
309
GRIDFORMAT_END
 95
       32
302
GRIDFORMAT
  1
GRIDFORMAT_BEGIN
 90
        0
 91
        1
 62
     0
 92
       -2
340
14
 93
        0
 40
0.045
309
GRIDFORMAT_END
309
TABLEFORMAT_END
  1
CELLSTYLE_BEGIN
 90
        3
 91
        2
300
_DATA
309
CELLSTYLE_END
  0
ENDSEC
  0
EOF
